Vindicator - Raze The Dead tab

http://www.myspace.com/savindicator

Raze the Dead

Main Riff 5x
|---------------------------------------------|
|---------------------------------------------|
|---------------------------------------------|
|---------------------------------------1-----|
|-0-0-------1-----0-----0-0-------1-----1-----|
|-0-0-0-1-2---2-1---2-1-0-0-0-1-2---2-1-1-----|
      . . . . . . . . .     . . . . . .
|---------------------------------------------|
|---------------------------------------------|
|---------------------------------------------|
|-------------------------3-3---1-1-----------|
|-0-0-------1-----0-------3-3---1-1-----------|
|-0-0-0-1-2---2-1---2-1-0-3-3-0-1-1-----------|
      . . . . . . . . . .     .
Verse 1 2x
|---------------------------------------------|
|---------------------------------------------|
|---------------------------------------------|
|-----------7-6---------7-6---------7-6-------|
|-0---------5-4---------5-4---------5-4-6-5-6-|
|-0-000-000-----000-000-----000-000-----6-5-6-|
    ... ...     ... ...     ... ...
|---------------------------------------------|
|---------------------------------------------|
|---------------------------------------------|
|-----------7-6---------7-6-------------------|
|-0---------5-4---------5-4-6-5-6-----3-6-5---|
|-0-000-000-----000-000-----6-5-6-333-3-6-5---|
    ... ...     ... ...           ... 
|---------------------------------------------|
|---------------------------------------------|
|---------------------------------------------|
|-----------7-6---------7-6---------7-6-------|
|-0---------5-4---------5-4---------5-4-6-5-6-|
|-0-000-000-----000-000-----000-000-----6-5-6-|
    ... ...     ... ...     ... ...
|-----------------------------------------------------|
|-----------------------------------------------------|
|-----------------------------------------------------|
|-----------7-6---------7-6---------------------------|
|-0---------5-4---------5-4-6-5-6-----3-6-5-----2-5-3-|
|-0-000-000-----000-000-----6-5-6-333-3-6-5-222-2-5-3-|
    ... ...     ... ...           ...       ...

Chorus 2x
|---------------------------------------------|
|---------------------------------------------|
|---------------------------------------------|
|-----7-6-7-----7-8-7-----7-6-7---------------|
|-----5-4-5-----5-6-5-----5-4-5-----6-3-6-----|
|-000-------000-------000-------555-6-3-6-----|
  ...       ...       ...       ...
|---------------------------------------------|
|---------------------------------------------|
|---------------------------------------------|
|-----7-6-7-----7-8-7-------------------------|
|-----5-4-5-----5-6-5-----6-3-6-----2-5-3-----|
|-000-------000-------555-6-3-6-222-2-5-3-----|
  ...       ...       ...       ...

Verse 2 2x
|---------------------------------------------|
|---------------------------------------------|
|---------------------------------------------|
|-----------7-6---------7-6---------7-6-------|
|-0---------5-4---------5-4---------5-4-6-5-6-|
|-0-000-000-----000-000-----000-000-----6-5-6-|
    ... ...     ... ...     ... ...
|---------------------------------------------|
|---------------------------------------------|
|---------------------------------------------|
|-----------7-6---------7-6-------------------|
|-0---------5-4---------5-4-6-5-6-----3-6-5---|
|-0-000-000-----000-000-----6-5-6-333-3-6-5---|
    ... ...     ... ...           ... 
|---------------------------------------------|
|---------------------------------------------|
|---------------------------------------------|
|-----------7-6---------7-6---------7-6-------|
|-0---------5-4---------5-4---------5-4-6-5-6-|
|-0-000-000-----000-000-----000-000-----6-5-6-|
    ... ...     ... ...     ... ...
|-----------------------------------------------------|
|-----------------------------------------------------|
|-----------------------------------------------------|
|-----------7-6---------7-6---------------------------|
|-0---------5-4---------5-4-6-5-6-----3-6-5-----2-5-3-|
|-0-000-000-----000-000-----6-5-6-333-3-6-5-222-2-5-3-|
    ... ...     ... ...           ...       ...

Chorus 2x
|---------------------------------------------|
|---------------------------------------------|
|---------------------------------------------|
|-----7-6-7-----7-8-7-----7-6-7---------------|
|-----5-4-5-----5-6-5-----5-4-5-----6-3-6-----|
|-000-------000-------000-------555-6-3-6-----|
  ...       ...       ...       ...
|---------------------------------------------|
|---------------------------------------------|
|---------------------------------------------|
|-----7-6-7-----7-8-7-------------------------|
|-----5-4-5-----5-6-5-----6-3-6-----2-5-3-----|
|-000-------000-------555-6-3-6-222-2-5-3-----|
  ...       ...       ...       ...

Pre-interlude
|---------------------------------------------|
|---------------------------------------------|
|---------------------------------------------|
|-----------0~~~~~~~~~~~~~~~~~~~~~~~~~--------|
|-----2-5-3-0~~~~~~~~~~~~~~~~~~~~~~~~~--------|
|-222-2-5-3-0~~~~~~~~~~~~~~~~~~~~~~~~~--------|
  ...

Interlude 4x
|---------------------------------------------|
|---------------------------------------------|
|---------------------------------------------|
|-------------------------8~~~-8~-------------|
|-------------------------5~~~-6~-7~----------|
|-0-000-0-000-0-000-0-000---------7~----------|
  . ... . ... . ... . ...

Guitar Solo
|---------------------------------------------|
|---------------------------------------------|
|-5h7~~~~~-5-7-5-8~~~~~-11b12-11b12-11~~~~~---|
|---------------------------------------------|
|---------------------------------------------|
|---------------------------------------------|

|---------------------------------------------|
|---------------------------------14b16~~~~~--|
|-11-12-11-14-14b16r14p12-14~~~~~-------------|
|---------------------------------------------|
|---------------------------------------------|
|---------------------------------------------|

|---------------------------------------------|
|---------------------------------------------|
|-15p14h15-14p12h14-12p10h12-10b12-10p7-5-5h7-|
|---------------------------------------------|
|---------------------------------------------|
|---------------------------------------------|

|---------------------------------------------|
|-3-3-3-3-3-3-3-3-----------------15\\\\\\\\3-|
|-7-7-5-5-5-3-3-3-2-3-3p2h3p2-----14\\\\\\\\2-|
|----------------------------4~~--------------|
|---------------------------------------------|
|---------------------------------------------|

Main Riff 5x
|---------------------------------------------|
|---------------------------------------------|
|---------------------------------------------|
|---------------------------------------1-----|
|-0-0-------1-----0-----0-0-------1-----1-----|
|-0-0-0-1-2---2-1---2-1-0-0-0-1-2---2-1-1-----|
      . . . . . . . . .     . . . . . .
|---------------------------------------------|
|---------------------------------------------|
|---------------------------------------------|
|-------------------------3-3---1-1-----------|
|-0-0-------1-----0-------3-3---1-1-----------|
|-0-0-0-1-2---2-1---2-1-0-3-3-0-1-1-----------|
      . . . . . . . . . .     .

Outro
|------|
|------|
|------|
|------|
|-0----|
|-0----|
Tap to rate this tab
 
# A B C D E F G H I J K L M N O P Q R S T U V W X Y Z