Song name
# A B C D E F G H I J K L M N O P Q R S T U V W X Y Z

Vindictives - Alarm Clocks tab

Vindictives, Alarm Clocks
The best Vindictives song!!

It's pretty simple, just power chords,basic tuning. I'll try to put the solo
in later but if you just listen to the song you could figure that out easy
enough, it's all on the 1st string...here you go!

mute strings on intro, strumming up and down and unmuting once in awhile
(listen to song)
e------------------------------------------------------------------
b------------------------------------------------------------------
g------------------------------------------------------------------
d-----------------------------------7-7-7-7-7-7-7-7-7-7-7-7-7-7-7-7
a-5-5-5-5-5-5-5-5--7-7-7-7-7-7-7-7--5-5-5-5-5-5-5-5-5-5-5-5-5-5-5-5
e-3-3-3-3-3-3-3-3--5-5-5-5-5-5-5-5---------------------------------

play above part 2 times then play:

e------------------------------------------------------------------
b------------------------------------------------------------------
g------------------------------------------------------------------
d-----------------------------------7-7-7-7-6-6-6-6-4-4-4-4-4-4----
a-5-5-5-5-5-5-5-5--7-7-7-7-7-7-7-7--5-5-5-5-4-4-4-4-2-2-2-2-2-2----
e-3-3-3-3-3-3-3-3--5-5-5-5-5-5-5-5---------------------------------

then:

e------------------------------------------------------------------
b------------------------------------------------------------------
g------------------------------------------------------------------
d----------------------------7-7-7-7-7---7-7-7-7-7---7-7-7-7-7---7-
a-5-5-5-5-5-5---7-7-7-7-7-7--5-5-5-5-5-7-5-5-5-5-5-7-5-5-5-5-5-7-5-
e-3-3-3-3-3-3---5-5-5-5-5-5------------5-----------5-----------5---

let last note ring then start from beginning again, not muted after intro
Tap to rate this tab
# A B C D E F G H I J K L M N O P Q R S T U V W X Y Z