Song name
# A B C D E F G H I J K L M N O P Q R S T U V W X Y Z

Vines - Hes A Rocker tab

Help us improve GuitareTab! Take a short survey!
-------------------------------------------------------------------------------
			   'He's A Rocker,' by The Vines
-------------------------------------------------------------------------------
Tabbed by:dez15
Email:vo_debra@hotmail.com

Tuning:Standard


Verse
e|---------------------------------------------------------------------------|
B|---------------------------------------------------------------------------|
G|---------------------------------------------------------------------------|
D|---------------------------------------------------------------------------|
A|---------------------------------------------------------------------------|
E|--5-3-5-3-5-8-3-3-0-3-0-3-5---x2-------------------------------------------|

Chorus
e|---------------------------------------------------------------------------|
B|---------------------------------------------------------------------------|
G|---------------------------------------------------------------------------|
D|---7---10----5----7--------------------------------------------------------|
A|---7---10----5----7----x2--------------------------------------------------|
E|---5----8----3----5--------------------------------------------------------|

Bridge
e|---------------------------------------------------------------------------|
B|---------------------------------------------------------------------------|
G|------------------8-------------------8------------------------------------|
D|---3----6---10----8----3----6---10----8------------------------------------|
A|---3----6---10----6----3----6---10----6------------------------------------|
E|---1----4----8---------1----4----8-----------------------------------------|

Solo
e|---------------------------------------------------------------------------|
B|---------------------------------------------------------------------------|
G|--2-0-2-0-2-5---0-0-0-2---2-0-2-0-2-5---0-0-0-2----------------------------|
D|-----------------2-2---------------------2-2-------------------------------|
A|---------------------------------------------------------------------------|
E|---------------------------------------------------------------------------|


Outro
e|---------------------------------------------------------------------------|
B|---------------------------------------------------------------------------|
G|---------------------------------------------------------------------------|
D|---3----6---10-------------------------------------------------------------|
A|---3----6---10-------------------------------------------------------------|
E|---1----4----8-------------------------------------------------------------|


| /  slide up
| \  slide down
| h  hammer-on
| p  pull-off
| ~  vibrato
| +  harmonic
| x  Mute note
===============================================================================
Related for Hes A Rocker tab