Song name
# A B C D E F G H I J K L M N O P Q R S T U V W X Y Z

Vines - Manger tab

Artist: The Vines
Song: Manger

tabbed by shanE
email - random.hero___@hotmail.com

|------------------------------|
|------------------------------|
|------------------------------|
|------------------------------| Verse
|-4-4-4-4-4--2-2-2-2--7-7-7-7--|
|-2-0-2-0-2--0-0-0-0--5-5-5-5--|


|-----------------|
|-----------------|
|-----------------|
|-7------5--------| Chorus
|-5--7---3---5----|
|----5-------3----|


|-----------------|
|-----------------|
|-6-6-6-7-9-7/6-6-|  Solo 
|-----------------|
|-----------------| x2 then:
|-----------------|
                   

|-----------------|
|-----------------|
|-4-4-4-4-5-5-5-5-|
|-----------------|
|-----------------|
|-----------------|
Tap to rate this tab
# A B C D E F G H I J K L M N O P Q R S T U V W X Y Z