Song name
# A B C D E F G H I J K L M N O P Q R S T U V W X Y Z

Vines - Autumn Shade Iii tab

The Vines - Autumn Shade III
Melodia
_________________________________________
 
E                       G#m
      In the early morning

                        G
Underneath the autumn shade

                    F# 
I dont need more reminding

        B
Of the day

E                         G#m
      Now the leaves are falling

                      G
And the sun wont be around

                            F#
And the world are endless singing

         B
To the clouds


  E                 G#m                      G

e|---------------------------------------------------|
B|---------------------------------------------------|
G|------/11-9---9---8-------------/11-9---6--7-------|
D|--9-9-------9---------------9-9-------9------------|
A|---------------------------------------------------|
E|---------------------------------------------------|


                       F#             B

e|---------------------------------------------------|
B|---------------------------------------------------|
G|------9-7---7-7--7---6---4-6--6-6---4--------------|
D|--9-9----------------------------------------------|
A|---------------------------------------------------|
E|---------------------------------------------------|


  E                  G#m

e|---------------------------------------------------|
B|----9-9-9-9-9-9-9-9-9-9-9-9-9-9-9-9----------------|
G|---9-9-9-9-9-9-9-9-8-8-8-8-8-8-8-8-----------------|
D|---------------------------------------------------|
A|---------------------------------------------------|
E|---------------------------------------------------|


  G                  B

e|---------------------------------------------------|
B|----8-8-8-8-8-8-8-8-7-7-7-7-4-4-4-4----------------|
G|---7-7-7-7-7-7-7-7-6-6-6-6-4-4-4-4-----------------|
D|---------------------------------------------------|
A|---------------------------------------------------|
E|---------------------------------------------------|
Tap to rate this tab
# A B C D E F G H I J K L M N O P Q R S T U V W X Y Z