Song name
# A B C D E F G H I J K L M N O P Q R S T U V W X Y Z

Vines - Kara Jayne tab

Based this on a)power tab and b)Channel V 2008 show
Chords are pretty simple just do the power tab one (thanks by the way) A, Bm, A
Chorus: F#m, Em, D

solo:
e|-0-2-4-0~------------------------------------------------------------|
B|----------0-0----2---------------------------------------------------|
G|---------------2---2-------2-----------------------------------------|x2
D|----------------------2h4--------------------------------------------|
A|---------------------------------------------------------------------|
E|---------------------------------------------------------------------|

e|---------------------------------------------------------------------|
B|---------------------------------------------------------------------|
G|-4b-4-2-4-2---2---------9-9-7-7-6-6-4-4-2----------------------------|x2
D|------------4---4----------------------------------------------------|
A|---------------------------------------------------------------------|
E|---------------------------------------------------------------------|

and that should be it 
h=hammer on
b=bend
~=hold
Tap to rate this tab
 
# A B C D E F G H I J K L M N O P Q R S T U V W X Y Z