Song name
# A B C D E F G H I J K L M N O P Q R S T U V W X Y Z

Vines - Mary Jane tab

The Vines - Mary Jane
Submitted By: Daniel Taylor
EMail: danielt88@hotmail.com


Tuning: Standard (E A D G B E)

Clean with chorus and delay

E|----2--------5----------0------2-----2---------------------||
B|----3--------5----------0------2-------2-----2h3p2---------||
G|----2--------0----------0------2---------2-----------2-----||
D|----0---0----------------------0---------------------------||
A|-----------------------------------------------------------||
E|-----------------------------------------------------------||

E|----2--------5----------0------2-----2---------------------||
B|----3--------5----------0------2-------2-----2h3p2---1-----||
G|----2--------0----------0------2---------2-----------------||
D|----0---0----------------------0---------------------------||
A|-----------------------------------------------------------||
E|-----------------------------------------------------------||

E|---------------------------------------------------------------||
B|----------1--------0------0-------0h1p0------------------------||
G|-------0-----0-------0------0------------0-----------0---------||
D|--0h2-----------2------2------2-------------------2-----2------||
A|---------------------------------------------0h3-----------3---||
E|---------------------------------------------------------------||

E|-------------------------||
B|-------------------------||
G|--------0----------0-----||
D|--0-------0----0h2-------||
A|-----3------3------------||
E|-------------------------||

Verse chords (in order)

    D     Am    C 
E|--2---------------||
B|--3-----1-----1---||
G|--2-----2-----0---||
D|--0-----2-----2---||
A|--------------3---||
E|------------------||

Chorus

E|-------------------------------------------------------------------------||
B|-------------------------------------------------------------------------||
G|---7--------14--12--11----------7----14--12--11--12--11-----9--5--4^--2--||
D|-------------------------------------------------------------------------||
A|-------------------------------------------------------------------------||
E|-------------------------------------------------------------------------||

Backing chords are: D, Am, Asus2, Am, C, Csus2, C, Csus2

E|----2--------5----------0------2-----2---------------------||
B|----3--------5----------0------2-------2-----2h3p2---------||
G|----2--------0----------0------2---------2-----------2-----||
D|----0---0----------------------0---------------------------||
A|-----------------------------------------------------------||
E|-----------------------------------------------------------||

E|----2--------5----------0------2-----2---------------------||
B|----3--------5----------0------2-------2-----2h3p2---1-----||
G|----2--------0----------0------2---------2-----------------||
D|----0---0----------------------0---------------------------||
A|-----------------------------------------------------------||
E|-----------------------------------------------------------||

E|---------------------------------------------------------------||
B|----------1--------0------0-------0h1p0------------------------||
G|-------0-----0-------0------0------------0-----------0---------||
D|--0h2-----------2------2------2-------------------2-----2------||
A|---------------------------------------------0h3-----------3---||
E|---------------------------------------------------------------||

E|-------------------------||
B|-------------------------||
G|--------0----------0-----||
D|--0-------0----0h2-------||
A|-----3------3------------||
E|-------------------------||

Outro

E|---------------------------------------------------------||
B|---------------------------------------------------------||
G|---7------------7------------7--6------------------4--5--||
D|-----------------------------------7------------7--------||
A|---------------------------------------------------------||
E|---------------------------------------------------------||

E|-----2-------2------5------3------2-----------2------2------5-------||
B|-------3-------3------3------3------3-----------3------3------3-----||
G|---------2-------2------2------2------2-----------2------2------2---||
D|--0----------------------------------------0------------------------||
A|--------------------------------------------------------------------||
E|--------------------------------------------------------------------||

E|--3-------2-------3-----3------2------2------0------0---||
B|----3-------3-------1-----1------1------1------1--------||
G|------2-------2-------2-----2------2------2------2------||
D|--------------------------------------------------------||
A|--------------------------------------------------------||
E|--------------------------------------------------------||

E|---------------------------------------------2----------||
B|-----1------1------0-----------0-------0-----3----------||
G|-------0------0------0---2-------2-----------2----------||
D|---------2------2------2---------------------0----------||
A|--3-------------------------3-------3-------------------||
E|--------------------------------------------------------||
Tap to rate this tab
 
# A B C D E F G H I J K L M N O P Q R S T U V W X Y Z