Song name
# A B C D E F G H I J K L M N O P Q R S T U V W X Y Z

Vines - Radio tab

heres the corrected version, sorry the first version i used to tab was bad quality
but now that its been released i can hear it so i fixed it. The strumming youll have
to figure out but u should get it pretty quickly have fun


Intro
E----------------------------------------------------------|
B----------------------------------------------------------|
G----------------------------------------------------------|
D----7-----------------------------------------------------|
A----7-----------------------------------------------------|
E----5-----------------------------------------------------|

Verse
E--------------------------------------------------------------|
B--------------------------------------------------------------|
G----------------------------------5---------------------------|
D----7----5-5-6---7--5-5-6--3---4--5---5-5-6---7---------------|
A----7----5-5-6---7--5-5-6--3---4--3---5-5-6---7---------------|
E----5----3-3-4---5--3-3-4--1---2------3-3-4---5---------------|

Chorus

E-------------------------------------------------------------|
B-------------------------------------------------------------|
G---5---------------------------------------------------------|
D---5---2--7--------------------------------------------------|
A---3---2--7--------------------------------------------------|
E-------0--5--------------------------------------------------|

Solo

E-----------------------------------------------------------|
B-----------------------------------------------------------|
G--9---9/6---7/6---7/6--2-----(2x)--------------------------|
D-----------------------------------------------------------|
A-----------------------------------------------------------|
E-----------------------------------------------------------|

E-------------------------------------------------------------|
B-------------------------------------------------------------|
G--7--5--2--7--5--7-8-9-----------18b(20)---------------------|
D-------------------------------------------------------------|
A-------------------------------------------------------------|
E-------------------------------------------------------------|
Tap to rate this tab
 
# A B C D E F G H I J K L M N O P Q R S T U V W X Y Z