Song name
# A B C D E F G H I J K L M N O P Q R S T U V W X Y Z

Vines - Fuck The World tab

Tabbed by: Maik Chambone - TotalGuitarist!

Intro (bass)

G---------------------------------------|
D------------555-4-3--------------------|
A-0-3-0-3-0-----------------------------|
E---------------------------------------|

Then, when guitars come in:
 A#5  C#5  F#5
E---------------------------------------|
B---------------------------------------|
G------5--------------------------------|
D---7--5--2-----------------------------|
A---7--3--2-----------------------------|
E---5-----4-----------------------------|

Or..                                Repeat as many as necessary

E----------------------------------------|
B----------------------------------------|
G--2---5---------------------------------|
D--2---5--4------------------------------|
A--0---3--4------------------------------|
E---------2------------------------------|

Then a small solo:

E------------------------------------------|
B------------------------------------------|
G--12b-12b-12b-12b-12b-12b-12b-12b-12b-12b-|
D------------------------------------------|
A------------------------------------------|
E------------------------------------------|
Tap to rate this tab
# A B C D E F G H I J K L M N O P Q R S T U V W X Y Z