Song name
# A B C D E F G H I J K L M N O P Q R S T U V W X Y Z

Vines - Get Out tab

Artist: The Vines
Song: Get Out

tabbed by shanE
email - random.hero___@hotmail.com


|------------------|
|------------------|
|------------------|
|-6--6-------------| Verse/Chorus
|-4--4---4---7-----|
|--------2---5-----|

|--------------------|
|--------------------|
|--------------------|
|-6--6---------------|  PreChorus
|-4--4---4---7--2--4-|
|--------2---5--0--2-|


|--------------|
|--------------|
|--------------|
|-2-9----------| Bridge
|-0-7--4-------|
|------2-------|


|-----------------|
|-9-7-5-----------|
|-------6-4-------|
|-----------6-4---| x2
|-----------------|
|-----------------|
                     Solo.
|-----------------|
|-9-7-5-----------|
|-------6-4-------|
|-----------6-4-6-| 
|-----------------|
|-----------------|
Tap to rate this tab
# A B C D E F G H I J K L M N O P Q R S T U V W X Y Z