Song name
# A B C D E F G H I J K L M N O P Q R S T U V W X Y Z

Vines - Scream tab

this is my first tab!!
sorry if i get anthing worng.. correct me if it do


Intro:   heavy distortion
e|------------------------------|      x4
B|------------------------------|
G|------------------------------|
D|--2-2-2-2-2-2-2-5-5-5-8-8-8-8-|
A|--2-2-2-2-2-2-2-5-5-5-8-8-8-8-|
E|--0-0-0-0-0-0-0-3-3-3-6-6-6-6-|

Verse: 1     'first time that we met...'
e|------------------------------|      x4
B|------------------------------|
G|------------------------------|
D|------------------------------|
A|------------------------------|
E|--0-0-0-0-0-0-0-3-3-3-6-6-6-6-|


Chorus:

e|------------------------------|      x2
B|------------------------------|
G|------------------------------|
D|--2-2-2-2-2-2-2-5-5-5-8-8-8-8-|
A|--2-2-2-2-2-2-2-5-5-5-8-8-8-8-|
E|--0-0-0-0-0-0-0-3-3-3-6-6-6-6-|

Verse:2     'i don't really know ...'
e|------------------------------|      x4
B|------------------------------|
G|------------------------------|
D|------------------------------|
A|------------------------------|
E|--0-0-0-0-0-0-0-3-3-3-6-6-6-6-|

Chorus:

e|------------------------------|      x4
B|------------------------------|
G|------------------------------|
D|--2-2-2-2-2-2-2-5-5-5-8-8-8-8-|
A|--2-2-2-2-2-2-2-5-5-5-8-8-8-8-|
E|--0-0-0-0-0-0-0-3-3-3-6-6-6-6-|

Bridge:

e|-------------------------------------------------|      x4
B|-------------------------------------------------|
G|--8-8-8-8-8-8--5-5-5-5-5-5-------------3-3-3-3---|
D|--8-8-8-8-8-8--5-5-5-5-5-5--5-5-5-5-5--3-3-3-3---|
A|--6-6-6-6-6-6--3-3-3-3-3-3--5-5-5-5-5--1-1-1-1---|
E|----------------------------3-3-3-3-3------------|

e|------------------------------|      x4
B|------------------------------|
G|------------------------------|
D|------------------------------|
A|------------------------------|
E|--0-0-0-0-0-0-0-3-3-3-6-6-6-6-|

e|------------------------------|      x4
B|------------------------------|
G|------------------------------|
D|--2-2-2-2-2-2-2-5-5-5-8-8-8-8-|
A|--2-2-2-2-2-2-2-5-5-5-8-8-8-8-|
E|--0-0-0-0-0-0-0-3-3-3-6-6-6-6-|

Solo:

e|--0-0-0-0-0-0-0-3-3-3-3-3-6-6-6-6---|      x4
B|------------------------------------|
G|------------------------------------|
D|------------------------------------|
A|------------------------------------|
E|------------------------------------|

e|----|      
B|----|
G|----|
D|--2-|
A|--2-|
E|--0-|
Tap to rate this tab
# A B C D E F G H I J K L M N O P Q R S T U V W X Y Z