Vines - Get Free drum

Band:vines
song:get free
Album:Highly Evolved

____________________________________
PT1:Intro:[Wait During Guitar Solo]
C1|------------------------X-------|
F |0-0-0-0-0-0-0-0-0-0-0-0---------|
S |0-0-0-0-0-0-0-0-0-0-0-0-0-000000|
B |0-0-0-0-0-0-0-0-0-0-0-0-0-------|
  |1e+a2e+a3e+a4e+a1e+a2e+a3e+a4e+a|

C1|X---------------X---------------|X---------------X---------------|
C2|--------------X-----------------|--------------------------------|
RD|--X-X-X-X-X-X-----X-X-X-X-X-X-X-|--X-X-X-X-X-------X-X-X-X-X-----|
S |----0--0----0-------0--0----0---|----0--0----00------0--0----00--|
F |--------------------------------|------------------------------0-|
B |0-------0-0---0-0-------0-0---0-|0-------0-0-----0-------0-0---0-|
  |1e+a2e+a3e+a4e+a1e+a2e+a3e+a4e+a|1e+a2e+a3e+a4e+a1e+a2e+a3e+a4e+a|

PT2:Verse1:[Repeat Once]
C1|X-------------------------------|----------------X---------------|
RD|--------------------------------|--------------------X-X-X-------|
H |--x-x-x-x-x-x-x-x-x-x-x-x-x-x-x-|x-x-x-x-x-x---------------------|
S |----0-------0-------0-------0---|----0-------00------0--0--0000--|
F |--------------------------------|--------------0---------------00|
B |0-0---0-0-0---0-0-0---0-0-0---0-|0-0---0-0-0-----0-------0-0-----|
  |1e+a2e+a3e+a4e+a1e+a2e+a3e+a4e+a|1e+a2e+a3e+a4e+a1e+a2e+a3e+a4e+a|

PT3:Chorus:
C1|X-------------------------------|X-------------X-----------------|
RD|--X-X-X-X-X-X-X-X-X-X-X-X-X---X-|--X-X-X-X-X-X-X-X-X-X-X-X-X-----|
S |----0-------0-------0--0----00--|----0-------0-------0--0-0--00--|
F |--------------------------------|------------------------------00|
B |0-----0-0-----0---0-----0-0---0-|0-----0-0-----0---0-----0-------|
  |1e+a2e+a3e+a4e+a1e+a2e+a3e+a4e+a|1e+a2e+a3e+a4e+a1e+a2e+a3e+a4e+a|
   
C1|X-------------X-----------------|X-------------X-----------------|
RD|--X-X-X-X-X-X-X-X-X-X-X-X-X-X-X-|--X-X-X-X-----X-----------------|
S |----0-------0-------0--0----0---|----0-----00--------------------|
F |--------------------------------|------------0-------------------|
B |0-----0-0-----0---0-----0-0-----|0-----0-0-----0-----------------|
  |1e+a2e+a3e+a4e+a1e+a2e+a3e+a4e+a|1e+a2e+a3e+a4e+a1e+a2e+a3e+a4e+a|

PT4:Interlude:[Loose HiHats][Repeat 4x]
C|X---------------|X---------------|
H|--X-X-X-X-X-----|--X-X-X-X-X-----|
S|----0--0---00000|----0--0----0000|
B|0-0-----0-0-----|0-0-----0-0-----|
 |1e+a2e+a3e+a4e+a|1e+a2e+a3e+a4e+a|

PT5:Verse2:[Repeat Once]
C1|X-------------------------------|--------------X-----------------|
RD|--------------------------------|----------------X-X-X-X-X-X-X-X-|
H |--x-x-x-x-x-x-x-x-x-x-x-x-x-x-x-|x-x-x-x-x-x---------------------|
S |----0-------0-------0-------0---|----0-------00------0-------0---|
F |--------------------------------|--------------------------------|
B |0-0---0-0-0---0-0-0---0-0-0---0-|0-0---0-0-0---0---0---0-0-0---0-|
  |1e+a2e+a3e+a4e+a1e+a2e+a3e+a4e+a|1e+a2e+a3e+a4e+a1e+a2e+a3e+a4e+a|

PT3:Chorus:
C1|X-------------------------------|X-------------X-----------------|
RD|--X-X-X-X-X-X-X-X-X-X-X-X-X---X-|--X-X-X-X-X-X-X-X-X-X-X-X-X-----|
S |----0-------0-------0--0----00--|----0-------0-------0--0-0--00--|
B |0-----0-0-----0---0-----0-0---0-|0-----0-0-----0---0-----0-----0-|
  |1e+a2e+a3e+a4e+a1e+a2e+a3e+a4e+a|1e+a2e+a3e+a4e+a1e+a2e+a3e+a4e+a|
   
C1|X-------------X-----------------|X-------------X-----------------|
RD|--X-X-X-X-X-X-X-X-X-X-X-X-X-X-X-|--X-X-X-X-----X-----------------|
S |----0-------0-------0--0----0---|----0-----00--------------------|
F |--------------------------------|------------0-------------------|
B |0-----0-0-----0---0-----0-0-----|0-----0-0-----0-----------------|
  |1e+a2e+a3e+a4e+a1e+a2e+a3e+a4e+a|1e+a2e+a3e+a4e+a1e+a2e+a3e+a4e+a|

PT6:Bridge:[Loose HiHats][Repeat Once]
C1|X-X-X-X-X-X-X-X-X-X-X-X-X-X-X-X-|
S |----0--0----0-------0-------0---|
B |0-------0-0---0---0---0-0-0---0-|
  |1e+a2e+a3e+a4e+a1e+a2e+a3e+a4e+a|

C1|X-X-X-X-X-X-X-X-|#---------------|
S |----0-------0---|----------------|
B |0-0---0-0-0---0-|0---------------|
  |1e+a2e+a3e+a4e+a|1e+a2e+a3e+a4e+a|

PT7:Verse3:
C1|------------------------X-------|
F |0-0-0-0-0-0-0-0-0-0-0-0---------|
S |0-0-0-0-0-0-0-0-0-0-0-0-0-000000|
B |0-0-0-0-0-0-0-0-0-0-0-0-0-------|
  |1e+a2e+a3e+a4e+a1e+a2e+a3e+a4e+a|

C1|X---------------X---------------|X---------------X---------------|
C2|------------------------------X-|--------------------------------|
RD|--X-X-X-X-X-X-X---X-X-X-X-X-X---|--X-X-X-X-X-X-X---X-X-X-X-X-----|
S |----0--0----0-------0--0----0---|----0--0----0-------0--0----00--|
B |0-------0-0---0-0-------0-0---0-|0-------0-0---0-0-------0-0---0-|
  |1e+a2e+a3e+a4e+a1e+a2e+a3e+a4e+a|1e+a2e+a3e+a4e+a1e+a2e+a3e+a4e+a|

PT3:Chorus:
C1|X-------------------------------|X-------------X-----------------|
C2|--X-X-X-X-X-X-X-X-X-X-X-X-X---X-|--X-X-X-X-X-X---X-X-X-X-X-X-----|
S |----0-------0-------0--0----00--|----0-------0-------0--0-0--00--|
F |--------------------------------|------------------------------00|
B |0-----0-0-----0---0-----0-0---0-|0-----0-0-----0---0-----0-------|
  |1e+a2e+a3e+a4e+a1e+a2e+a3e+a4e+a|1e+a2e+a3e+a4e+a1e+a2e+a3e+a4e+a|
   
C1|X-------------X-----------------|X-------------X-----------------|
C2|--X-X-X-X-X-X---X-X-X-X-X-X-X-X-|--X-X-X-X-----X-----------------|
S |----0-------0-------0--0----0---|----0-----00--------------------|
F |--------------------------------|------------0-------------------|
B |0-----0-0-----0---0-----0-0-----|0-----0-0-----0-----------------|
  |1e+a2e+a3e+a4e+a1e+a2e+a3e+a4e+a|1e+a2e+a3e+a4e+a1e+a2e+a3e+a4e+a|
END
Tap to rate this tab
 
# A B C D E F G H I J K L M N O P Q R S T U V W X Y Z