Song name
# A B C D E F G H I J K L M N O P Q R S T U V W X Y Z

Vines - Future Primitive tab

Band : The Vines
Song : future primitive
Album : future primitive

This is the first song ive figured out may be wrong if it is
   and if you know the right way put it on corrections

INTRO
E-------------------------------------------|
B-------------------------------------------|
G-------------------------------------------| (X4)
D--6-6-6-6-6-6-6--4-----6-6-6-6-6-6-6--4----|
A--4-4-4-4-4-4-4--2--4--4-4-4-4-4-4-4--2--4-|
E--------------------2--------------------2-|
           MUTE                MUTE

DISTOR
E------------------------------------------------|
B------------------------------------------------|
G--6-6-4-------6-6-4-------6-6-4-------8-8-8-6-0-| (X2)
D--6-6-4-4-4-4-6-6-4-4-4-4-6-6-4-4-4-4-8-8-8-6-0-|
A--4-4-2-4-4-4-4-4-2-4-4-4-4-4-2-4-4-4-6-6-6-4-0-|
E--------2-2-2-------2-2-2-------2-2-2-----------|

SOLO
E------------------------------------------------|
B--4-4-4---4---4-4-4-------4-4-4---4---4-4-4-----|
G--------5---5-------7-5---------5---4-------7-5-|
D------------------------------------------------|
A------------------------------------------------|
E------------------------------------------------|

DISTOR
E------------------------------------------------|
B------------------------------------------------|
G--6-6-4-------6-6-4-------6-6-4-------8-8-8-6-0-| (X2)
D--6-6-4-4-4-4-6-6-4-4-4-4-6-6-4-4-4-4-8-8-8-6-0-|
A--4-4-2-4-4-4-4-4-2-4-4-4-4-4-2-4-4-4-6-6-6-4-0-|
E--------2-2-2-------2-2-2-------2-2-2-----------|

E-------------------------------------------------|
B-------------------------------------------------|
G-------------------------------------------------| (X2)
D-4-4-4-4-4-4-4-4-4-4-6-6-6-6-6-6-6-7-7-7-7-7-7-7-|
A-4-4-4-4-4-4-4-4-4-4-6-6-6-6-6-6-6-7-7-7-7-7-7-7-|
E-2-2-2-2-2-2-2-2-2-2-4-4-4-4-4-4-4-5-5-5-5-5-5-5-|

OUTRO
E-------------------------------------------|
B-------------------------------------------|
G-------------------------------------------| (X4)
D--6-6-6-6-6-6-6--4-----6-6-6-6-6-6-6--4----|
A--4-4-4-4-4-4-4--2--4--4-4-4-4-4-4-4--2--4-|
E--------------------2--------------------2-|
       MUTE                   MUTE

DISTOR
E------------------------------------------------|
B------------------------------------------------|
G--6-6-4-------6-6-4-------6-6-4-------8-8-8-6-0-| (X2)
D--6-6-4-4-4-4-6-6-4-4-4-4-6-6-4-4-4-4-8-8-8-6-0-|
A--4-4-2-4-4-4-4-4-2-4-4-4-4-4-2-4-4-4-6-6-6-4-0-|
E--------2-2-2-------2-2-2-------2-2-2-----------|

END
E------------------------------------------------|
B--4-4-4---4-------------------------------------|
G--------5---5-----------------------------------|
D------------------------------------------------|
A------------------------------------------------|
E------------------------------------------------|
Tap to rate this tab
# A B C D E F G H I J K L M N O P Q R S T U V W X Y Z