Song name
# A B C D E F G H I J K L M N O P Q R S T U V W X Y Z

Vines - Autumn Shade Ii tab

----------------------------------------------------------------------------
			     Autumn Shade II - The Vines
----------------------------------------------------------------------------
Tabbed by:Dorian Zdrinc
Email:darkstrife210@yahoo.com


The Vines
Winning Days
Autumn shade II

Tuning: Standard
   Listen to song for timing of chords and solo.

-Chords-
   C  G  Em A
E--0--3--0--0------------------------
B--1--0--0--2------------------------
G--0--0--0--2------------------------
D--2--0--2--2------------------------
A--3--2--2--0------------------------
E-----3--0---------------------------

  Chord Progression for verse is C, G, Em, and A.

E---------0-------------3---------------0--------------0-------
B--------------------------------------------0--------------2--
G-------------0--------------0----------------------------2----
D-----2-----2--------0-----0---------------2--------2----------
A--3--------------------------------2------------0-------------
E-----------------3--------------0-----------------------------


  ---Progression for chorus is C, G, and Em.


    Solo over chorus second time.
E-----------------------------------------------------------------
B-----------------------------------------------------------------
G---9-9-9-9--12--11--9~~~~~----7----------------------------------
D---------------------------------9-----9-------/12--9~-9/10~~-9~~
A------------------------------------7-----7~~--------------------
E-----------------------------------------------------------------

E------------------------------------------------------------
B---------------10-------------------------------------------
G---9-9-9-9--12----12b13--9~~~~-----------9~~~~~~~~~~--------
D----------------------------------9b-9b--------------------- Tabs by-Dorian
A------------------------------------------------------------
E------------------------------------------------------------
Tap to rate this tab
# A B C D E F G H I J K L M N O P Q R S T U V W X Y Z