Song name
# A B C D E F G H I J K L M N O P Q R S T U V W X Y Z

Vines - Sun Child tab

tabed by:Matthew Magnusson
Tuning: standard tuning
NOTE!!!!!!!!!: the chords for the verse and chorus are correct on the other tabs for
this song. All im doing is providing their work and putting in the fills, solo, and ending

Verse and opening
e|-----------------------------------------------------|
b|---------5-5-5-5-5---0-0-0-0-0---3-3-3-3---0-0-0-0-0-|
g|---------4-4-4-4-4---4-4-4-4-4---4-4-4-4---4-4-4-4-4-|
d|---------5-5-5-5-5---5-----------5-5-5-5---5---------|
a|-----------------------------------------------------|
e|-----------------------------------------------------|

Chorus
e|-3-3-3-3-3-3-3-3---------3-3-3-3----------------------|
B|-2-2-2-2-2-2-2-2-1-1-1-1-3-3-3-3----------------------|
G|-3-3-3-3-3-3-3-3-0-0-0-0-x-x-x-x----------------------|
D|-----------------2-2-2-2-x-x-x-x----------------------|
A|-----------------3-3-3-3-2-2-2-2----------------------|
E|-------------------------3-3-3-3----------------------|

Fill#1
e|-7-7-7-7-7-10-10-10-7-10-10/12-12-12-12-10-10-10-------|
B|-------------------------------------------------------|
G|-------------------------------------------------------|X2
D|-------------------------------------------------------|
A|-------------------------------------------------------|
E|-------------------------------------------------------|

Verse

Solo(flange reverb distortion)
e|-------------------------------------------------------|
B|------8/10-10-8-8-7-7-5-5-3h5p3-3b---------------------|
G|-7~~-7----------------------------3b-3b-3b-3b-3b-3b----|
D|-7~~---------------------------------------------------|
A|-5~~---------------------------------------------------|
E|-------------------------------------------------------|

e|-------------------------------------------------------|
B|-------------------------------------------------------|
G|-7-------------5--------------------7-5----------------|
D|-7-(16 counts)-5-(8 counts)-5-5/7\5-7-5-7-5------------|
A|-5-------------3------------5-5/7\5-5-3-7-5------------|
E|----------------------------3-3/5\3-----5-3------------|

e|-0-----------------------------------------------------|
B|---3---------------------------------------------------|
G|-----4-2-4/7-4-2p0-0-2-0-2-0-4/7-4-2-0----0-0----------|
D|-------------------------------------------------------|
A|-------------------------------------------------------|
E|-------------------------------------------------------|

e|-0----------------------------------------------------------------|
B|---3--------------------------------------------------------------|
G|-----4-2-4/7-4-2p0-0-2-0-2-0-4/7-4-2-0/12-12-12-12-12-12-12-11~~~-|
D|------------------------------------------------------------------|
A|------------------------------------------------------------------|
E|------------------------------------------------------------------|

Chorus is played and after is some random G C and D chords played

e|--------------------------------------------------------|
B|--------------------------------------------------------|
G|-------7-5-------7-9-------7-5-------7-9-12-------------|
D|-5-7-5-7-5-5-7-5-7-9-5-7-5-7-5-5-7-5-7-9-12-------------|
A|-5-7-5-5-3-5-7-5-5-7-5-7-5-5-3-5-7-5-5-7-10-------------|
E|-3-5-3-----3-5-3-----3-5-3-----3-5-3--------------------|

this next part is played in back of bass(strum as needed)

e|--------------------------------------------------------|
B|-12-11-10---------------5~~~~~~-------------------------|
G|-12-11-10---------------5~~~~~~-------------------------|
D|-12-11-10------10-12-10-5~~~~~~-------------------------|
A|-10-9--8--12-14---------3~~~~~~-------------------------|
E|--------------------------------------------------------|


| /  slide up
| \  slide down
| h  hammer-on
| p  pull-off
| ~  vibrato
| +  harmonic
| x  Mute note
Tap to rate this tab
# A B C D E F G H I J K L M N O P Q R S T U V W X Y Z