Song name
# A B C D E F G H I J K L M N O P Q R S T U V W X Y Z

Vines - Shes Got Something To Say To Me tab

The Vines-She's Got Something to Say to Me

Main Riff
 E
-0--------------------------------|
-0--------------------------------|
-1--1-2-1---------------1---------|
-2--------2-2-3-2-0-2---2---------|
-2--------------------0-2---------|
-0----------------------0---------|

Verse

E                               (G)
She's got something to say to me
E                         (G)
about me ever coming round
E
She's got something to say to me
B
and don't know how to be left out
         A   G   A   G   A  B   A    E
Are you tellin' me what you ain't knowin'?

Bridge
A - E - A - B

Solo

e|----------------------------------------------------|
B|--9-10-9--------------------------------------------|
G|---------9-7-9-9^-7---7-7-9^-7-7-9^-9^-9^-9^-7------|
D|--------------------9--------------------------9----|
A|----------------------------------------------------|
E|----------------------------------------------------|

e|----------------------------------------------------|
B|----------------------------------------------------|
G|--9-10-9---7-9-9^-9^-7-8^8^8^8^8^8^8^8^8^8^--9-8----|
D|---------9------------------------------------------|
A|----------------------------------------------------|
E|----------------------------------------------------|

e|--------------------------------------|
B|----5-8-10-8-10^-10^-10^-8-9-5--------|
G|--8-----------------------------------|
D|--------------------------------------|
A|--------------------------------------|
E|--------------------------------------|

e|---------------------------------------------------------------|
B|------------------------------8-10-10-10^-8-10--12--10--9--7^--|
G|----9-7---7-9-9^-7---7---9-9-----------------------------------|
D|--9-----9----------9---7---------------------------------------|
A|---------------------------------------------------------------|
E|---------------------------------------------------------------|
Tap to rate this tab
 
# A B C D E F G H I J K L M N O P Q R S T U V W X Y Z