Song name
# A B C D E F G H I J K L M N O P Q R S T U V W X Y Z

Vines - Winning Days tab

-------------------------------------------------------------------------------
			     WINNING DAYS - The Vines
-------------------------------------------------------------------------------
Tabbed by: sabiangreen17
Email: sabiangreen17@comcast.net

Tuning: Standard

e|----------------------------------------------------------|
B|-------3--1----------3--1-----------3--1------------3--1--|
G|-----------------0--------------0-------------------------|
D|---2--------------------------------------------2---------|
A|-----3-------3-3---3--------3-----2-------2h3-----3-------|
E|-1----------------------------3---------------1-----------|

e|----------------------------------------------------------|
B|---------3--1----------3--1---------3--0---------5--3-----|
G|-------------------0------------0-------------------------|
D|-----2----------------------------------------------------|
A|-3-----3-------3-3---3------3-----2------2-2/5------------|
E|---1--------------------------3----------------3----------|

e|----------------------------------------------------------|
B|---------3--1----------3--1----------3--1------------3--1-|
G|-------------------0-------------0------------------------|
D|-----2-------------------------------------------2--------|
A|-3-----3-------3-3---3-------3-----2-------2h3-----3------|
E|---1---------------------------3---------------1----------|

e|----------------------------------------------------------|
B|---------3--1----------3--1---------3--0---------5--3-----|
G|-------------------0------------0-------------------------|
D|-----2----------------------------------------------------|
A|-3-----3-------3-3---3------3-----2------2-2/5------------|
E|---1--------------------------3----------------3----------|


| /  slide up
| h  hammer-on

===============================================================================
Tap to rate this tab
# A B C D E F G H I J K L M N O P Q R S T U V W X Y Z