Song name
# A B C D E F G H I J K L M N O P Q R S T U V W X Y Z

Vines - Tv Pro tab

Vines - TV Pro TAB
By: pd_jim_69@hotmail.com

Donno if it's right, feel free to edit.
Standard tuning

      h - hammer on
      p - pull off
      b - bend string up
      r - release bend
      / - slide up
      \ - slide down

Intro/Verse

e|----0-----------0--------------------5-----------5-----------------|
B|------2---0-2-----2---0-2---0-2--------6---5-6-----6---5-6---5-6---|
G|--2-----2-----2-----2-----2-----2--7-----7-----7-----7-----7----7--|
D|-------------------------------------------------------------------|
A|-------------------------------------------------------------------|
E|-------------------------------------------------------------------|

e|----0-----------0--------------------5-----------5-----------------|
B|------2---0-2-----2---0-2---0-2--------6---5-6-----6---5-6---------|
G|--2-----2-----2-----2-----2-----2--7-----7-----7-----7-------------|
D|-------------------------------------------------------------------|
A|-------------------------------------------------------------------|
E|-------------------------------------------------------------------|

Chorus

e|-----------|
B|-----------|
G|-----7-----|
D|--7--7-----|
A|--7--5-----|
E|--5--------|

Bridge

e|--------|
B|--------|
G|--------|
D|-5--6---|
A|-5--6---|
E|-3--4---|

e|----------------------------------|
B|----------------------------------|
G|----------------------------------|
D|-7-7-7-7---7-7-7---7-7-7-7-7-7----|
A|-7-7-5-7---7-5-7---7-5-7-7-7-5----|
E|-5-5-5-5---5-5-5---5-5-5-5-5-5----|

e|----------------------------------|
B|-------------------------8-6------|
G|-7-7-7-7---7-7-7---7-7-7----------|
D|-7-7-5-7---7-5-7---7-5-7----------|
A|-5-5-5-5---5-5-5---5-5-5----------|
E|----------------------------------|

e|----------------------------------|
B|----------------------------------|
G|----------------------------------|
D|-7-7-7-7---7-7-7---7-7-7-7-7-7----|
A|-7-7-5-7---7-5-7---7-5-7-7-7-5----|
E|-5-5-5-5---5-5-5---5-5-5-5-5-5----|

e|----------------------------------|
B|----------------------------------|
G|-7-7-7-7---7-7-7---7-7-7----------|
D|-7-7-5-7---7-5-7---7-5-7----------|
A|-5-5-5-5---5-5-5---5-5-5----------|
E|----------------------------------|

Solo

e|-----------------5---------------------5-----------|
B|-8-6-5-----5-6-5---5-5h6-----5---5h6-5---5-5h6p5---|
G|-------------------------------7-------------------|
D|---------------------------------------------------|
A|---------------------------------------------------|
E|---------------------------------------------------|

e|---------------------------------------------------|
B|--------------------------5-5b6r5------------------|
G|-7-6\2222222/5-----4-4/7---------------------------|
D|---------------------------------------------------|
A|---------------------------------------------------|
E|---------------------------------------------------|
Tap to rate this tab
 
# A B C D E F G H I J K L M N O P Q R S T U V W X Y Z