Song name
# A B C D E F G H I J K L M N O P Q R S T U V W X Y Z

Vines - Evil Town tab

-----------------------------------------------------------------------------
			     EVIL TOWN - The Vines
-----------------------------------------------------------------------------

Cool song and fairly simple:

Main Part:


Gtr I: Distortion

                                     x2        (NB: below = 12, 11, 9, 11)
e|--<12>--------------------------------|-----------------------------------|
B|--------------------------------------|-----------------------------------|
G|------------------11fbr--11-9-11------|-----12121212111111119999111111----|
D|--------------------------------------|-----------------------------------|
A|--------------------------------------|-----------------------------------|
E|--------------------------------------|-----------------------------------|
                                             (NB: below = 12, 11, 14)
           Second time:                e|--------------------------------|
                                       B|--------------------------------|
                                       G|-----12121212-------------------|
                                       D|-------------1111111114141414---|
                                       A|--------------------------------|
                                       E|--------------------------------|



Gtr II: Distortion
                                                                        x2
e|--------------------------------------------------------------------------|
B|--------------------------------------------------------------------------|
G|-------3-----------------------------1------------------------------------|
D|-------4-----------------------------2------------------------------------|
A|-------4-----------------------------2------------------------------------|
E|-------2-----------------------------0------------------------------------|


Verses:

Gtr III: Clean

Basically Strum these:

    F#           E
e|--2------------0------------|
B|--2------------0------------|
G|--3------------1------------|
D|--4------------2------------|
A|--4------------2------------|
E|--2------------0------------|




                 "Evil..........              is what ya"

Gtr II: Distortion

e|--------------------------------------------------------------------------|
B|--------------------------------------------------------------------------|
G|-------3-----------------------------1------------------------------------|
D|-------4-----------------------------2------------------------------------|
A|-------4-----------------------------2------------------------------------|
E|-------2-----------------------------0------------------------------------|


Order:
Main part x2
Verses
Main Part x2
"Evil.."  x3
Main Part x1 (without speed picking bit)

Thats basically it........


============================================================================
============================================================================
Tap to rate this tab
 
# A B C D E F G H I J K L M N O P Q R S T U V W X Y Z