Song name
# A B C D E F G H I J K L M N O P Q R S T U V W X Y Z

Vines - Dont Listen To The Radio tab

Song: Don't Listen to the Radio
Band: The Vines
Album: Vision Valley
Tabbed by mrFood

Intro:
e|---------------------------------------------------------------------|
B|---------------------------------------------------------------------|
G|---------------------------------------------------------------------|
D|--7-7-7-7-7-7-7-7-7-7-7-7-7-7-7-7-7-7-7-7-7-7-7-7-7-7-7-7-7-5-5-5//--|
A|--7-7-7-7-7-7-7-7-7-7-7-7-7-7-7-7-7-7-7-7-7-7-7-7-7-7-7-7-7-5-5-5//--|
E|--5-5-5-5-5-5-5-5-5-5-5-5-5-5-5-5-5-5-5-5-5-5-5-5-5-5-5-5-5-3-3-3//--|

Verse:
e|--------------------------------------------------------------------
B|--------------------------------------------------------------------
G|--------------------------------------------------------------------
D|--7-7-7-7-7-7-7-7-7-7-7-7-7-5-5-5//7-7-7-7-7-7-7-7-7-7-7-7-7-5-5-5//
A|--7-7-7-7-7-7-7-7-7-7-7-7-7-5-5-5//7-7-7-7-7-7-7-7-7-7-7-7-7-5-5-5//
E|--5-5-5-5-5-5-5-5-5-5-5-5-5-3-3-3//5-5-5-5-5-5-5-5-5-5-5-5-5-3-3-3//

e|---------------------------------------------------------------------|
B|---------------------------------------------------------------------|
G|---------------------------------------------------------------------|
D|--3-3-3-3-3-3-3-3-5-5-5-5-5-5-5-5-7-7-7-7-7-7-7-7-7-7-7-7-7-5-5-5//--|
A|--3-3-3-3-3-3-3-3-5-5-5-5-5-5-5-5-7-7-7-7-7-7-7-7-7-7-7-7-7-5-5-5//--|
E|--1-1-1-1-1-1-1-1-3-3-3-3-3-3-3-3-5-5-5-5-5-5-5-5-5-5-5-5-5-3-3-3//--|

Chorus:
e|-----------------------------------------------------------|
B|-----------------------------------------------------------|
G|--5-5--5-5--5-5--------------------------------------------|
D|--5-5--5-5--5-5-2-2--2-2--2-2-7-7--7-7--7-7-7-7--7-7--7-7--|
A|--3-3--3-3--3-3-2-2--2-2--2-2-7-7--7-7--7-7-7-7--7-7--7-7--|
E|----------------0-0--0-0--0-0-5-5--5-5--5-5-5-5--5-5--5-5--|

Solo:
e|-------------------------------------------------------------------------|
B|----------------------------------------------------------------15b(16)--|
G|--9--9-6-7-6-7-6-------9--9-6-7-6-7-6-------7-5---7-5--7-8-9~~~~---------|
D|------------------7--------------------7--------7------------------------|
A|-------------------------------------------------------------------------|
E|-------------------------------------------------------------------------|

(Note: Tremolo pick the bend at the end of the solo.)
Tap to rate this tab
# A B C D E F G H I J K L M N O P Q R S T U V W X Y Z