Song name
# A B C D E F G H I J K L M N O P Q R S T U V W X Y Z

Vines - Vision Valley tab

1. Anysound

Chords -

D5 x577xx
A5 577xxx
C5 x355xx
F5 x81010xx

e --------------|
B --------------|
G 5s7-5---------|
D 5s7-5-7-x-x-x-|
A 3s5-3-7-x-x-x-|
E ------5-x-x-x-|

Chorus -

D5 A5 C5, F5 D5

Solo -

e ---------------------------------------------------------------------------|
B ---------------15b1615-13--------------------------------------------------|
G 12b13~~~-14-14------------14-12-7-5-7-5---------5b-7-5-7b-7b-7b-7b-5-------|
D ----------------------------------------7-5-7-5----------------------7-5-7-|
A ---------------------------------------------------------------------------|
E ---------------------------------------------------------------------------|

e ---------------------------------|
B --------------------13-------15b-|
G 12b-12b-14-14-14-14----14-14-----|
D ---------------------------------|
A ---------------------------------|
E ---------------------------------|

It gets quite chaotic in the middle, it's difficult to make out what is being played. 
pretty sure Craig is making most of

it up on the spot, just improvise in the C major scale and it'll sound fine.


2. Nothin's Comin'

Chords -
G#5 466xxx
B5  x244xx
F#5 244xxx
D5  x577xx
A5  577xxx
E5  022xxx
F5  133xxx
C5  x355xx

Verse -

G#5 B5 F#5 D5 A5

Chorus -

B5 F#5 D5 A5

Outro -

E5 B5 F5 C5


3. Candy Daze

A   x02220
G   320003
D   xx0232
A7  575xxx
G7  353xxx
D7  x575xx
A5  577xxx
G5  355xxx
D5  x577xx
C5  x355xx
A#5 x133xx

Verse -

A G D

"C'mon c'mon..." -

A7 G7 D7

Middle 8 -

G5 D5, C5 A#5

Solo -

e ------------------------------|
B 5-5-5-5-6-5-3-1-5-3~~-s10-8-6-|
G ------------------------------|
D ------------------------------|
A ------------------------------|
E ------------------------------|


4. Vision Valley

Chords -

Em 022000
G  320003
D  xx0232
C  x32010

Whole song -

Em G D C


5. Don't Listen To The Radio

Chords -

A5  577xxx
G5  355xxx
G#5 466xxx
F5  133xxx
C5  x355xx
E5  022xxx

Verse -

A5, G5 G#5 A5, F5 G5

Chorus -

C5 E5 A5

Solo -

e ----------------|
B ----------------|
G 9-9-6-7-6-7-6-2-| twice
D ----------------|
A ----------------|
E ----------------|

e ------------------------------------------|
B ------------------------------------------|
G 7-5---7-5-7-8-9b--19b-19b-19b-19b-19b-19b-|
D ----7-------------------------------------|
A ------------------------------------------|
E ------------------------------------------|

6. Gross Out

Chords -
D5  x577xx
A5  577xxx
A#5 688xxx
G5  355xxx
C5  x355xx

Verse -

D5 A5 A#5

Palm muted part -

G5 C5 A#5 A5


7. Take Me Back

Main riff -

e ----0---0-| Three times
B 0h2---0---|
G ----------|
D ----------|
A ----------|
E ----------|

e -----
B -----
G -----
D ----2 Then
A --2--
E 0----

e ----------|
B ----------|
G ----2---2-|
D 2h4---2---| Followed by the riff above once more
A ----------|
E ----------|

Intro/Chorus -

A E F#m E

Verse -

A F#m (strummed once)

Buildup to chorus -

F#5 (palm muted)

Middle 8 -

E D A, E5 (palm muted)

Solo -

e -----------------------------------------------------|
B -----------------------------------------------------|
G 6-6-4-2-1----2-1---6-6-4-2-1----2-1-s4-2-1-1-1-4-2-1-|
D ----------4------2-----------4-----------------------|
A -----------------------------------------------------|
E -----------------------------------------------------|


8. Going Gone

Chords -

C     x32010
Cadd9 x32030
Am    x02210
Gm    355333
F     133211

Verse -

C Cadd9 Am C

Chorus -

Gm F C

Fingerpicked part in the middle -

e ---------------------------------------------------------------------|
B --1-----0-----1-----0----------------1-----0-----1-----0-------------|
G ----0-----0-----0-----0----------0-----0-----0-----0-----0---------0-|
D ------2-----2-----2-----2----0h2---------2-----2-----2-----2---0h2---|
A 3--------------------------3-------0-------------------------0-------|
E ---------------------------------------------------------------------|

9. Fuk Yeah

Chords -
A#5 x133xx
C5  x355xx
G5  355xxx
C#5 x466xx
G#5 466xxx
F5  133xxx

Verse -

A#5 C5 G5

"You'll never rule the earth" -

C#5 G#5 G5

"Two of a kind..." -

F5 G5, A#5 G#5

Solo -

e --------------------------------------------------------------------|
B ---------11---------------------------------------------------------|
G 10-10-10-----5b-5b-5b-5b-3----------3-----3----------15-17----------|
D ---------------------------5-3--3h5---3h5---3--15h17-------17-15----|
A -----------------------------------------------------------------17-|
E --------------------------------------------------------------------|


10. Futuretarded

Chords -

E5 x799xx
G5 355xxx
C5 x355xx
A5 577xxx

Verse -

E5 G5, C5 A5

End -

e ------------|
B ------------|
G 7s9-9-7-9---|
D 7s9-9-7-9-3-|
A 5s7-7-5-7-3-|
E ----------1-|


11. Dope Train

Chords -

A5  577xxx
A#5 688xxx
C5  81010xxx
G5  355xxx

Main -

A5 A#5 A5 A#5 C5 A#5 A5 (clean tone for verses, with scratchy strumming)

"Forever dreamin'..." -

A#5 G5 A#5 A5

Riff towards end -

e --------------|
B 10-10---------|
G ------9-9-7-6-|
D --------------|
A --------------|
E --------------|

12. Atmos

Chords -

G#5 466xxx
E5  022xxx
F#5 244xxx
D5  x577xx
A5  577xxx
C5  x355xx
G5  355xxx

Main -

G#5 E5 G#5 E5 F#5 D5 A5 C5 G5 A5

Solo -

e ------------|
B ------------|
G 8-7-8-7-8-7-| For a million years, then
D ------------|
A ------------|
E ------------|

e -----------------------------------------------------------|
B ------------------------------10---------------------------|
G ----4-6-4-s7-7-6-4---4-9b~~-9----9-9-7h9-7-------7---------|
D 4h6----------------6-----------------------9-7-9---9-7-7-9-|
A -----------------------------------------------------------|
E -----------------------------------------------------------|

Outro -

Fingerpicking based around the main chords, played loosely

e ------4---------0----|
B --------4---------0--|
G 0h5-5-----0h1-1------|
D ---------------------|
A ---------------------| x2
E ----4---------0------|

e -----2-------2-----|
B -------2-0h3---0-2-|
G -------------------|
D ---------0---------|
A --4------------0---|
E 2------------------|

e ------0---------3-----|
B --1-----1---0h3---0h2-|
G ----0-----0-----------|
D ----------------------| x2
A 3-----------------0---|
E --------------3-------|


13. Spaceship

Verse -

e ---------2----------------0-------|
B --3--------3---3---3--------3---3-|
G ----4----------------4------------|
D ----------------------------------|
A 2-----2------2---0------0-----0---|
E ----------------------------------|

e ---------2----------------0-------|
B --3--------3---3---3--------3---3-|
G ----4----------------4------------|
D ----------------------------------|
A ----------------------------------|
E 3-----3------3---2------2-----2---|

e ---------2----------------0-------|
B --3--------3---3---3--------3---3-|
G ----4----------------4------------|
D ----------------------------------|
A ----------------------------------|
E 0-----0------0---0------0-----0---|

e ---------2----------------0-------|
B --3--------3---3---3--------3---3-|
G ----4----------------4------------|
D ----------------------------------|
A ----------------------------------|
E 3-----3------3---3------3-----3---|

Chorus -

Bm Bm/A C G

e -----------|
B 7-7--------|
G ----7------|s7
D ------7----|
A -----------|
E -----------|

Sometimes play

e --------|
B --------|
G --7h9-7-|
D 7-------|
A --------|
E --------|

Solo - Whammy bars at the ready...

E G

e ----------------------------------------------------|
B ---------19b20-19-17-15-17-15-14-14-15-14-12-14b-12-|
G s14b-16b--------------------------------------------|
D ----------------------------------------------------|
A ----------------------------------------------------|
E ----------------------------------------------------|

e ---------------------------------------------------|
B ---------------------------------------------------|
G 4-7-9-7-9h11-9-7-6-7-6-4-4h6-4-7h9-7-------7-------|
D -------------------------------------9-7h9---9-7-9-|
A ---------------------------------------------------|
E ---------------------------------------------------|

e ---------------------|
B ---------------------|
G 11~~~----------------|
D ------9~~~-6~~~-5~~~-| x2
A ---------------------|
E ---------------------|

e ----------------------------------------------------------------|
B 19----19--------------------------------------------------------|
G ---16----16 Lots of times, towards the end start bending the 16-| up
D ----------------------------------------------------------------|
A ----------------------------------------------------------------|
E ----------------------------------------------------------------|
Tap to rate this tab
# A B C D E F G H I J K L M N O P Q R S T U V W X Y Z