Song name
# A B C D E F G H I J K L M N O P Q R S T U V W X Y Z

Vines - Fuk Yeh tab

Band:  The Vines
Song:  Fuk Yeh
Album: Vision Valley

Main Riff:
*Palm mute in verse take off palm mute on chorus

E||---------------------------|---------------------------||
B||---------------------------|---------------------------||
G||*--3--3--3--3--5--5--5-----|--------------------------*||
D||*--3--3--3--3--5--5--5--5--|--5--5--5--5--5--5--5--5--*||
A||---1--1--1--1--3--3--3--5--|--5--5--5--5--5--5--5--5---||
E||------------------------3--|--3--3--3--3--3--3--3--3---||

Second Riff:

E|-------------------------|
B|-------------------------|
G|--6--6--6----------------|
D|--6--6--6--6----6--6--5--|
A|--4--4--4--6----6--6--5--|
E|-----------4----4--4--3--|

Bridge:
                                                    x3
E||-------------------------|-------------------------||
B||-------------------------|-------------------------||
G||*------------------------|------------------------*||
D||--3----------------------|--5----------------------||
A||*-3----------------------|--5---------------------*||
E||--1----------------------|--3----------------------||

 E|-------------------------|-------------------------|
 B|-------------------------|-------------------------|
 G|-------------------------|-------------------------|
 D|--8----------------------|--6----------------------|
 A|--8----------------------|--6----------------------|
 E|--6----------------------|--4----------------------|

Solo:

|-----------------------|------|-------------------------|------|
|-----------------11----|------|-------------------------|------|
|--9b---9b---9b---------|------|--5b-5b-5b-5--3----------|------|
|-----------------------|------|-----------------5--3----|------|
|-----------------------|------|-------------------------|------|
|-----------------------|------|-------------------------|------|


                           
|------------------------|------|--------6--8--6----------|
|------------------------|------|--6h-8-----------8--6----|
|--------3----------3----|------|-------------------------|
|--3h-5-------3h-5-------|------|-------------------------|
|------------------------|------|-------------------------|
|------------------------|------|-------------------------|
Tap to rate this tab
# A B C D E F G H I J K L M N O P Q R S T U V W X Y Z