Song name
# A B C D E F G H I J K L M N O P Q R S T U V W X Y Z

Vines - Dope Train tab

Song:   Dope Train
Artist: The Vines
Album:  Vision Valley
Tabbed by mrFood

Intro/Chorus: (w/ Dist.)
e|-----------------------------------------------------------------|
B|-----------------------------------------------------------------|
G|--2--2-2-2-2-2-2-2-2-2-2-2-3-3-3-2--2-2-2-2-2-2-2-2-2-2-2-3-3-3--|
D|--2--2-2-2-2-2-2-2-2-2-2-2-3-3-3-2--2-2-2-2-2-2-2-2-2-2-2-3-3-3--|
A|--0--0-0-0-0-0-0-0-0-0-0-0-1-1-1-0--0-0-0-0-0-0-0-0-0-0-0-1-1-1--|
E|-----------------------------------------------------------------|

e|---------------------------------------------------------------|
B|---------------------------------------------------------------|
G|--5--5-5-5-5-5-5-5-5-5-5-5-5-3-3-3-2--2-2-2-2-2-2-2-2-2-2-3-3--|
D|--5--5-5-5-5-5-5-5-5-5-5-5-5-3-3-3-2--2-2-2-2-2-2-2-2-2-2-3-3--|
A|--3--3-3-3-3-3-3-3-3-3-3-3-3-1-1-1-0--0-0-0-0-0-0-0-0-0-0-1-1--|
E|---------------------------------------------------------------|

Verse: (Clean)
e|----------------------------------------------------------------------|
B|----------------------------------------------------------------------|
G|--2--2-x-x-x-x-2-2--2--3-3-3-2--2-x-x-x-x-2-2--2--3-3-3-5--5-x-x-x-x--|
D|--2--2-x-x-x-x-2-2--2--3-3-3-2--2-x-x-x-x-2-2--2--3-3-3-5--5-x-x-x-x--|
A|--0--0-x-x-x-x-0-0--0--1-1-1-0--0-x-x-x-x-0-0--0--1-1-1-3--3-x-x-x-x--|
E|----------------------------------------------------------------------|

e|---------------------------------------|
B|---------------------------------------|
G|--5--5--3-3-3-2--2--x-x-x-x-2--2--3-3--|
D|--5--5--3-3-3-2--2--x-x-x-x-2--2--3-3--|
A|--3--3--1-1-1-0--0--x-x-x-x-0--0--1-1--|
E|---------------------------------------|

Bridge: (w/ Dist.)
e|-------------------------------------------------------------|
B|-------------------------------------------------------------|
G|-------------------------5-5-5-2--2-2-2-2-2-2-2-2-2-2-3-3-3--|
D|--5--5-5-5-5-5-5-5-5-5-5-5-5-5-2--2-2-2-2-2-2-2-2-2-2-3-3-3--|
A|--5--5-5-5-5-5-5-5-5-5-5-3-3-3-0--0-0-0-0-0-0-0-0-0-0-1-1-1--|
E|--3--3-3-3-3-3-3-3-3-3-3-------------------------------------|

Outro Rhythym: (w/ Dist.)
e|------------------------------------------------------|
B|------------------------------------------------------|
G|--3-3--2-------3-3--2-------3-3--5-------3-3--2-------|
D|--3-3--2-------3-3--2-------3-3--5-------3-3--2-------|
A|--1-1--0-------1-1--0-------1-1--3-------1-1--0-------|
E|------------------------------------------------------|

Outro Lead: (w/ Dist.)
e|--5-5---------------|
B|-------5-5--3--1----|
G|--------------------|
D|--------------------|
A|--------------------|
E|--------------------|
Tap to rate this tab
 
# A B C D E F G H I J K L M N O P Q R S T U V W X Y Z