Song name
# A B C D E F G H I J K L M N O P Q R S T U V W X Y Z

Vines - Futuretarded tab

Song - Futuretarded
Album - Vision Valley
Artist - The Vines
Standard Tuning (EADGBe)

Verse
---------------------------------|
---------------------------------|
-9-9-9-9-9-9-9-9-----------------|
-9-9-9-9-9-9-9-9-5-5-5-5-5-5-5-5-| x 6
-7-7-7-7-7-7-7-7-5-5-5-5-5-5-5-5-|
-----------------3-3-3-3-3-3-3-3-|

Chorus
-----------------------------------------|
-----------------------------------------|
-----------------------------------------|
-10-10-10-10-10-10-10-10-7-7-7-7-7-7-7-7-|
-10-10-10-10-10-10-10-10-7-7-7-7-7-7-7-7-|
-8--8--8--8--8--8--8--8--5-5-5-5-5-5-5-5-|

---------------------------------|
---------------------------------|
-9-9-9-9-9-9-9-9-----------------|
-9-9-9-9-9-9-9-9-5-5-5-5-5-5-5-5-| x2 (Play this first time,
-7-7-7-7-7-7-7-7-5-5-5-5-5-5-5-5-|  second time just go straight into verse)
-----------------3-3-3-3-3-3-3-3-|

Bridge
-------------------------------|
-------------------------------|
-7-9--9--7-9-------------------|
-7-9--9--7-9-3-3-3-3-3-3-3-3-3-|
-5-7--7--5-7-3-3-3-3-3-3-3-3-3-|
-------------1-1-1-1-1-1-1-1-1-|

-------------------------------|
-------------------------------|
-7-9--9--7-9-------------------|
-7-9--9--7-9-5-5-5-5-5-5-5-5-5-|
-5-7--7--5-7-5-5-5-5-5-5-5-5-5-|
-------------3-3-3-3-3-3-3-3-3-|

x4

End
-------------|
-------------|
-7-9--9--7-9-|
-7-9--9--7-9-|
-5-7--7--5-7-|
-------------|

ORDER
Verse
Chorus
Verse
Chorus
Bridge
End

Well there it is, any corrections to coolandcrazy@hotmail.com.

Shotgun Joe
Tap to rate this tab
# A B C D E F G H I J K L M N O P Q R S T U V W X Y Z