Song name
# A B C D E F G H I J K L M N O P Q R S T U V W X Y Z

Vineyard - Holy Is The Lord tab

key of C

palm mute
  C
e-----------------------------------------------|
b-----------------------------------------------|
g-----------------------------------------------|
d--2-2-2-2-2h3-3-2-2-0-0-0h2--------------------|
a--3-3-3-3-3-3-3-3-3-3-3-3-3--------------------|
e-----------------------------------------------|

        F                G
e----------------------------------------------------------------|
b----------------------------------------------------------------|
g----------------------------------------------------------------|
d---3-3-3-3-3-3-3s-5-5-5-5-5-5-5---------------------------------|
a---3-3-3-3-3-3-3s-5-5-5-5-5-5-5---------------------------------|
e---1-1-1-1-1-3-1s-1-1-1-1-1-1-1---------------------------------|
    back to C
Tap to rate this tab
# A B C D E F G H I J K L M N O P Q R S T U V W X Y Z