Song name
# A B C D E F G H I J K L M N O P Q R S T U V W X Y Z

Vinilo Versus - Dos Secretos tab

Dos Secretos                                   
        Vinilo Versus

Standard Tuning.


      Intro                                                                   

E||---0-----0-----0-----0----|---0----10----10----10----|--10----10----10----|
B||---8-----8-----8-----8----|---8-----8-----8-----8----|---8-----8-----8----|
G||---0-----0-----0-----0----|---0-----0-----0-----0----|---0-----0-----0----|
D||---9-----9-----9-----9----|---9-----9-----9-----9----|---9-----9-----9----|
A||--10----10----10----10----|--10----10----10----10----|--10----10----10----|
E||---x-----x-----x-----x----|---x-----x-----x-----x----|---x-----x-----x----|



--0----0----0----0----|--0----5----5----5----|--5----5----5----|
--3----3----3----3----|--3----3----3----3----|--3----3----3----|
--0----0----0----0----|--0----0----0----0----|--0----0----0----|
--4----4----4----4----|--4----4----4----4----|--4----4----4----|
--5----5----5----5----|--5----5----5----5----|--5----5----5----|
--x----x----x----x----|--x----x----x----x----|--x----x----x----|


 
|---0----0----0----0----|--0----3----3----3----|--3----3----3-----||
|---1----1----1----1----|--1----1----1----1----|--1----1----1-----||
|*--0----0----0----0----|--0----0----0----0----|--0----0----0----*||
|*--2----2----2----2----|--2----2----2----2----|--2----2----2----*||
|---3----3----3----3----|--3----3----3----3----|--3----3----3-----||
|---x----x----x----x----|--x----x----x----x----|--x----x----x-----||


  Versos                                                               
 
--0------0----||----0-----0-----0-----0----|---0----10----10----10----|
--0------3----||----8-----8-----8-----8----|---8-----8-----8-----8----|
--0------0----||*---0-----0-----0-----0----|---0-----0-----0-----0----|
--2------4----||*---9-----9-----9-----9----|---9-----9-----9-----9----|
--3------5----||---10----10----10----10----|--10----10----10----10----|
--x------x----||----x-----x-----x-----x----|---x-----x-----x-----x----|


  
--10----10----10-----||--0----||---0----0----0----0----|--0----0----0----0----|
---8-----8-----8-----||--0----||---0----0----0----0----|--0----0----0----0----|
---0-----0-----0----*||--0----||*--0----0----0----0----|--0----0----0----0----|
---9-----9-----9----*||--2----||*--2----2----2----2----|--2----2----2----2----|
--10----10----10-----||--3----||---2----2----2----2----|--2----2----2----2----|
---x-----x-----x-----||--x----||---0----0----0----0----|--0----0----0----0----|


 
--0----0----0----|--0----0----0----0----|--0----0----0----0----|
--0----0----0----|--1----1----1----1----|--1----1----1----1----|
--0----0----0----|--0----0----0----0----|--0----0----0----0----|
--2----2----2----|--2----2----2----2----|--2----2----2----2----|
--2----2----2----|--3----3----3----3----|--3----3----3----3----|
--0----0----0----|--x----x----x----x----|--x----x----x----x----|


                    Coro                                        
 
--0----0----0----|--0----0----0----0----|--0----0----0----0----|
--1----1----1----|--2----2----2----2----|--2----2----2----2----|
--0----0----0----|--0----0----0----0----|--0----0----0----0----|
--2----2----2----|--2----2----2----2----|--2----2----2----2----|
--3----3----3----|--0----0----0----0----|--0----0----0----0----|
--x----x----x----|--x----x----x----x----|--x----x----x----x----|


 
--0----0----0----|--2----2----2----2----|--2----2----2----2----|
--2----2----2----|--5----5----5----5----|--5----4----4----4----|
--0----0----0----|--2----2----2----2----|--2----2----2----2----|
--2----2----2----|--4----4----4----4----|--4----4----4----4----|
--0----0----0----|--2----2----2----2----|--2----2----2----2----|
--x----x----x----|--x----x----x----x----|--x----x----x----x----|


 
--2----2----2-----||
--4----4----4-----||
--2----2----2----*||
--4----4----4----*||
--2----2----2-----||
--x----x----x-----||

Esta tab esta hecha para quienes como yo han escuchado la cancion millones de veces
y se puedan guiar para tocarla, es perfecta para tocarla en forma acustica como el video
que anda por youtube. Cualquier duda que tengan pueden escribirme
Saludos a todos los venezolanos!!!


Tabbed by Daniel Panda
daniel.panda@gmail.com
Tap to rate this tab
# A B C D E F G H I J K L M N O P Q R S T U V W X Y Z