Viniloversus - Viceversa chords

Highlighted       Show chord diagrams
   D  Am C C/B G
e  2  0  0  0  3
B  3  1  1  1  3
G  2  2  0  0  0
D  0  2  2  0  0
A  x  0  3  2  2
E  x  x  x  x  3

Intro - Riffx2
   D          Am               C          C/B
e---------------------------------------------------------------|
B---------3---------1-----1----------1-------------1------1-----|
G------2----2-----------2----------0---0---------0------0-------|
D---0------------2-----------------------------0----------------|
A--------------0-----------------3----------2-------------------|
E---------------------------------------------------------------|

   D          Am               C          C/B
e---------------------------------------------------------------|
B---------3/5---------1-----1----------1-------------1------1---|
G------2------------------2----------0---0---------0------0-----|
D---0------------2-----------------------------0----------------|
A--------------0-----------------3----------2-------------------|
E---------------------------------------------------------------|


D         Am          C           C/B
  Son cien lunas como agua sin espuma
      D       Am         C         C/B
como dias sin anochecer
D        Am          C        C/B
  yo sin ti soy una duda un problema que no
  D    Am    C        C/B
puedo resolver.
G                   D
     Y ahora entiendo la verdad
G                   D
         es tan sencillo.

Intro - Riffx2
   D          Am               C          C/B
e---------------------------------------------------------------|
B---------3---------1-----1----------1-------------1------1-----|
G------2----2-----------2----------0---0---------0------0-------|
D---0------------2-----------------------------0----------------|
A--------------0-----------------3----------2-------------------|
E---------------------------------------------------------------|

   D          Am               C          C/B
e---------------------------------------------------------------|
B---------3/5---------1-----1----------1-------------1------1---|
G------2------------------2----------0---0---------0------0-----|
D---0------------2-----------------------------0----------------|
A--------------0-----------------3----------2-------------------|
E---------------------------------------------------------------|

D        Am            C          C/B
  Si me muero y luego vuelvo a nacer,
D         Am          C       C/B
ojala pueda tener la misma suerte
       C
D     Am      C       C/B
de tenerte             nuevamente.
D     Am      C       C/B

G                   D
       Y ahora entiendo la verdad
G                  Am
       si es tan sencillo...

D
  Piensa en mi,
Am
  Yo pienso en ti
C                 G           D        Am
  no ves que asi es como funciooooooona
     C           G
mejor asi no supe contestar

Intro - Riffx2
   D          Am               C          C/B
e---------------------------------------------------------------|
B---------3---------1-----1----------1-------------1------1-----|
G------2----2-----------2----------0---0---------0------0-------|
D---0------------2-----------------------------0----------------|
A--------------0-----------------3----------2-------------------|
E---------------------------------------------------------------|

   D          Am               C          C/B
e---------------------------------------------------------------|
B---------3/5---------1-----1----------1-------------1------1---|
G------2------------------2----------0---0---------0------0-----|
D---0------------2-----------------------------0----------------|
A--------------0-----------------3----------2-------------------|
E---------------------------------------------------------------|

D    Am      C    C/B
Es asi como tenia que ser
D          Am           C      C/B
  para que, para que vencer los miedos
D      Am      C    C/B
    si los miedos solo
D    Am      C     C/B
vuelven a nacer
  D       Am        C    C/B
y yo vuelvo a tener
  D    Am      C    C/B
miedo de estar solo de estar.

G                   D
         Y ahora entiendo la verdad
G             Am
    si es tan sencillo...

D
  Piensa en mi,
Am
  Yo pienso en ti
C                 G           D        Am
  no ves que asi es como funciooooooona
     C           G
mejor asi no supe contestar X2

Intro - Riff
   D          Am               C          C/B
e---------------------------------------------------------------|
B---------3---------1-----1----------1-------------1------1-----|
G-----2----2-----------2----------0---0---------0------0--------|
D---0------------2-----------------------------0----------------|
A--------------0-----------------3----------2-------------------|
E---------------------------------------------------------------|

   D          Am               C          C/B
e---------------------------------------------------------------|
B---------3/5---------1-----1----------1-------------1------1---|
G-----2------------------2----------0---0---------0------0------|
D---0------------2-----------------------------0----------------|
A--------------0-----------------3----------2-------------------|
E---------------------------------------------------------------|


D   Am  C  C/B   D  Am  C 
C/B
Viceversa va tomando fuerza,
      D   Am  C  C/B   D  Am  
 C/B
es el viceversa va tomando fuerza

D Final.

http://www.viniloversus.com/
Tap to rate this tab
 
# A B C D E F G H I J K L M N O P Q R S T U V W X Y Z