Song name
# A B C D E F G H I J K L M N O P Q R S T U V W X Y Z

Viniloversus - Nada tab

NO SON MIS TABS, las saque de www.tusacordes.com xD

Intro

e/-----------------------------------------------------------/
B/-----------------------------------------------------------/
G/--8--x-x-x-x--8-8--x-x-x-x----6--6-6--6-6-6--4--4-4--4-4-4-/ (2)
D/--9--x-x-x-x--9-9--x-x-x-x----7--7-7--7-7-7--5--5-5--5-5-5-/
A/--9--x-x-x-x--9-9--x-x-x-x----7--7-7--7-7-7--5--5-5--5-5-5-/
E/--7--x-x-x-x--7-7--x-x-x-x----5--5-5--5-5-5--3--3-3--3-3-3-/

Verso I

e/-----------------------------------------/
B/-----------------------------------------/
G/-----------------------------------------/
D/-----------------------------------------/
A/-----------------------------------------/
E/-----------------------------------------/
  Algo aqui esta mal algo anda fuera de lugar........

e/------------------------------------------------------------/
B/------------------------------------------------------------/ 
G/---8---------8-----------------6--6-6--6-6-6--4--4-4--4-4-4-/ 
D/---9---------9-----------------7--7-7--7-7-7--5--5-5--5-5-5-/
A/---9---------9-----------------7--7-7--7-7-7--5--5-5--5-5-5-/
E/---7---------7-----------------5--5-5--5-5-5--3--3-3--3-3-3-/
  Nada se me va nada se me va nada se me queda

 Coro
e/--------------------------------------------------------/
B/--------------------------------------------------------/
G/----8-8-8-8-8-8-8-8---6-6-6-6-6-6-6-6---8-8-8-8-8-8-8-8-/
D/----9-9-9-9-9-9-9-9---7-7-7-7-7-7-7-7---9-9-9-9-9-9-9-9-/
A/----9-9-9-9-9-9-9-9---7-7-7-7-7-7-7-7---9-9-9-9-9-9-9-9-/
E/----7-7-7-7-7-7-7-7---5-5-5-5-5-5-5-5---7-7-7-7-7-7-7-7-/
      Nadaaaa           nada se me va       nadaaa se me vaaa

e/------------------------------------------------/
B/------------------------------------------------/
G/---6--6-6--6-6-6---4--4-4--4-4-4---x-x-x-x-x-x--/
D/---7--7-7--7-7-7---5--5-5--5-5-5---x-x-x-x-x-x--/
A/---7--7-7--7-7-7---5--5-5--5-5-5---x-x-x-x-x-x--/
E/---5--5-5--5-5-5---3--3-3--3-3-3---x-x-x-x-x-x--/
Nada se me queda





Verso II


e/------------------------------------/
B/------------------------------------/
G/------------------------------------/
D/------------------------------------/
A/------------------------------------/
E/------------------------------------/
   Tu eres una mas??..


e/------------------------------------------------/
B/------------------------------------------------/
G/--10-10-10-10-10-10-10-10---8-8-8-8-8-8-8-8-----/
D/--11-11-11-11-11-11-11-11---9-9-9-9-9-9-9-9-----/
A/--11-11-11-11-11-11-11-11---9-9-9-9-9-9-9-9-----/
E/---9--9--9--9--9--9--9--9---7-7-7-7-7-7-7-7-----/
   P.M
Y a ti te da igual que a mi?      yo te viiii

e/-----------------------------------------------/
B/-----------------------------------------------/
G/--10-10-10-10-10-10-10-10---8-8-8-8-8-8-8-8----/
D/--11-11-11-11-11-11-11-11---9-9-9-9-9-9-9-9----/
A/--11-11-11-11-11-11-11-11---9-9-9-9-9-9-9-9----/
E/---9--9--9--9--9--9--9--9---7-7-7-7-7-7-7-7----/
   P.M
Lo sentiii                     en tu mirada

e/-----------------------------------------------------------------/
B/-----------------------------------------------------------------/
G/---8----------8---------------------6--6-6--6-6-6--4--4-4--4-4-4-/  (2)
D/---9----------9---------------------7--7-7--7-7-7--5--5-5--5-5-5-/
A/---9----------9---------------------7--7-7--7-7-7--5--5-5--5-5-5-/
E/---7----------7---------------------5--5-5--5-5-5--3--3-3--3-3-3-/
  Nada se me va nada se me va nada se me queda

Coro
e/-----------------------------------------------------------/
B/-----------------------------------------------------------/
G/----8-8-8-8-8-8-8-8---6-6-6-6-6-6-6-6---8-8-8-8-8-8-8-8----/
D/----9-9-9-9-9-9-9-9---7-7-7-7-7-7-7-7---9-9-9-9-9-9-9-9----/
A/----9-9-9-9-9-9-9-9---7-7-7-7-7-7-7-7---9-9-9-9-9-9-9-9----/
E/----7-7-7-7-7-7-7-7---5-5-5-5-5-5-5-5---7-7-7-7-7-7-7-7----/
      Nadaaaa          nada se me va       nadaaa se me vaaa




e/------------------------------------------------/
B/------------------------------------------------/
G/---6--6-6--6-6-6---4--4-4--4-4-4---x-x-x-x-x-x--/ (2)
D/---7--7-7--7-7-7---5--5-5--5-5-5---x-x-x-x-x-x--/
A/---7--7-7--7-7-7---5--5-5--5-5-5---x-x-x-x-x-x--/
E/---5--5-5--5-5-5---3--3-3--3-3-3---x-x-x-x-x-x--/
Nada se me queda


e/------------------------------------------------/
B/------------------------------------------------/
G/-----7--9------7----9b-9b-9b------7--9----7--9b-/
D/--7----------7------------------7-------7-------/
A/------------------------------------------------/
E/------------------------------------------------/

e/--------------------------/
B/--------------------------/
G/--7--9-9-9-9-11-11-11-11--/
D/-7------------------------/
A/--------------------------/
E/--------------------------/

e/-------------------------------------------------------------/
B/-------------------------------------------------------------/
G/---9--11---9--11b-11-11-11-11---9--11---9--11-11-11-11--9--8-/
D/--9------9--------------------9--------9---------------------/
A/-------------------------------------------------------------/
E/-------------------------------------------------------------/

e/-------------------/
B/-------------------/
G/--9--11----11--11--/
D/-9--------9-----11-/
B/-------------------/
E/-------------------/

e/--------------------------------------/
B/--------------------------------------/
G/--------------------------------------/
D/--------------------------------------/
A/--------------------------------------/
E/--------------------------------------/
   Algo aqui esta mal algo anda fuera de lugar

e/--------------------------------------------------------/
B/--------------------------------------------------------/
G/--10-10-10-10-10-10-10-10---8-8-8-8-8-8-8-8-------------/
D/--11-11-11-11-11-11-11-11---9-9-9-9-9-9-9-9-------------/
A/--11-11-11-11-11-11-11-11---9-9-9-9-9-9-9-9-------------/
E/---9--9--9--9--9--9--9--9---7-7-7-7-7-7-7-7-------------/
   P.M
No digas que no es asi               yo te vii
e/--------------------------------------------------------/
B/--------------------------------------------------------/
G/--10-10-10-10-10-10-10-10---8-8-8-8-8-8-8-8-------------/
D/--11-11-11-11-11-11-11-11---9-9-9-9-9-9-9-9-------------/
A/--11-11-11-11-11-11-11-11---9-9-9-9-9-9-9-9-------------/
E/---9--9--9--9--9-9--9--9----7-7-7-7-7-7-7-7-------------/
   P.M
Lo sentii                                     en tu mirada

Coro
e/-----------------------------------------------------------/
B/-----------------------------------------------------------/
G/----8-8-8-8-8-8-8-8---6-6-6-6-6-6-6-6---8-8-8-8-8-8-8-8----/
D/----9-9-9-9-9-9-9-9---7-7-7-7-7-7-7-7---9-9-9-9-9-9-9-9----/
A/----9-9-9-9-9-9-9-9---7-7-7-7-7-7-7-7---9-9-9-9-9-9-9-9----/
E/----7-7-7-7-7-7-7-7---5-5-5-5-5-5-5-5---7-7-7-7-7-7-7-7----/
      Nadaaaa           nada se me va       nadaaa se me vaaa




e/------------------------------------------------/
B/------------------------------------------------/
G/---6--6-6--6-6-6---4--4-4--4-4-4---x-x-x-x-x-x--/ (2)
D/---7--7-7--7-7-7---5--5-5--5-5-5---x-x-x-x-x-x--/
A/---7--7-7--7-7-7---5--5-5--5-5-5---x-x-x-x-x-x--/
E/---5--5-5--5-5-5---3--3-3--3-3-3---x-x-x-x-x-x--/
Nada se me queda
Tap to rate this tab
 
# A B C D E F G H I J K L M N O P Q R S T U V W X Y Z