Song name
# A B C D E F G H I J K L M N O P Q R S T U V W X Y Z

Vinnie Moore - Cryptic Dreams tab

The lead intro to Cryptic Dreams by Vinnie Moore

      ~~~~~~~~~    ~~~~~~~~~~
E------------------------------------------------------------------------|
B------------------------------------------------------------------------|
G---17-----------14-------------10^12--10---------------------10^12--10--|
D-------------------------------------------14--14\15---10---------------|
A------------------------------------------------------------------------|
E------------------------------------------------------------------------|

E-------------------------------------------------------|
B-------------------------------------------------------|
G-----------------------12\14--10-----10\12-------------|
D---14--14\15---10--10-------------10-------------------|
A-------------------------------------------------------|
E-------------------------------------------------------|

                                   ~~~~~     ~~~~
E--13---12h13p12p10-----10----13\21--------17--------13-12h13p12p10--------|
B-------------------13-----------------------------13----------------------|
G--------------------------------------------------------------------------|
D--------------------------------------------------------------------------|
A--------------------------------------------------------------------------|
E--------------------------------------------------------------------------|

E------10------------------------------------------|
B--13-------8\10---8------8--8\10------------------|
G---------------------10---------------------------|
D--------------------------------------------------|
A--------------------------------------------------|
E--------------------------------------------------|
Tap to rate this tab
# A B C D E F G H I J K L M N O P Q R S T U V W X Y Z