Vinnie Moore - The Thinking Machine tab

*1's across the fret board denote the first ending. 2's denote the second etc. etc.
e|-------------------------------1----------------------------|
B|-------------------------------1----------------------------|
G|-------------------------------1-7-10-9-7-------------------|
D|-------------------------9-6-7-1-----------10-9-7-10-9-7-6--|
A|--------------5-7-8-5-7--------1----------------------------|
E|---4-5-7-4-5-------------------1----------------------------|

e|-2--------------------------------3-----------------------------------4--|
B|-2--------------------------------3----9h10h9-------------------------4--|
G|-2--------------------------------3-----------10-9-7-10-9-7-----------4--|
D|-2--6h7h6-------------------------3-------------------------10-9-7-6--4--|
A|-2---------8-7-5-8-7-5------------3-----------------------------------4--|
E|-2---------------------8-7-5-4-5--3-----------------------------------4--|

e|------------------------------------------------------|
B|------------------------------------------------------|
G|---10h9h7---10h9h7------------------------------------|
D|--------------------10h9h7---10h9h7----9h7h6-9h7h6-7--|
A|------------------------------------------------------|
E|------------------------------------------------------|
Tap to rate this tab
 
# A B C D E F G H I J K L M N O P Q R S T U V W X Y Z