Song name
# A B C D E F G H I J K L M N O P Q R S T U V W X Y Z

Vinnie Moore - The Tempest tab

Artist:Vinnie Moore
Song:The Tempest
Album:Time Odyssey
Tab By:Bobo

 Ive been searching this tabs for a long time but i couldnt find it so... i just
learn it.The picking for this song is quite tough but i hope u can play it....

Tuning:Standard tuning

intro and verse:

)--------------------------------------------8---------5-------------
)------------------------------------8----------10--------6----------
)------------------7----------7--------9-----------10-------5--------
)-7----------7-------8-----8-----8--------10-------------------7-----
)---8-----8----8-------10-----------------------------------------8--
)-----10-------------------------------------------------------------


)--------------------------------------------------------------------
)----------------------------------5-----------5----6----------------
)-----------------3----------3--------5-----5-----5------------------
)--3-------3--------5-----5-----5--------7---------------------------
)----5---5----5--------7---------------------------------------------
)------6-------------------------------------------------------------



)-------------------------------------------8--------5---------------
)-----------------------------------8---------10-------6-------------
)-----------------7------------7------9----------10------5-----------
)-7----------7-------8------8----8------10------------------7--------
)---8-----8----8--------10------------------------------------8------
)-----10-------------------------------------------------------------


)--------------------------------------------------------------------
)--------------------------------5----------5------------------------
)----------------3---------3--------5-----5----5--6------------------
)-3---------3------5----5-----5--------7-----------------------------
)---5----5----5------7-----------------------------------------------
)-----6--------------------------------------------------------------

    if i made any mistake please mail me at  jacoby_shedix@yahoo.co.in
Tap to rate this tab
 
# A B C D E F G H I J K L M N O P Q R S T U V W X Y Z