Song name
# A B C D E F G H I J K L M N O P Q R S T U V W X Y Z

Vinnie Moore - April Sky tab

Vinnie Moore - April Sky
Tabbed and transcribed by Corey Snapp
This is the correct tab for April Sky by Vinnie Moore. This is not my work
but i noticed that no one has this tabbed out so here it is

 Intro          Trill
|--------------------------------------13-10------------------15-12----------------------|
|--10---11-13-15-10-8-8---10-11-13-6---------11---13-11-10-11-------13-13-11(13)---11-10-|
|----------------------------------------------------------------------------------------|
|----------------------------------------------------------------------------------------|
|----------------------------------------------------------------------------------------|
|----------------------------------------------------------------------------------------|

|------------13----13-----10-12-13-------7-10-13-12----8--------------8-12-10----8p7h8---|
|--11-10-8-6---------------------------------------------10-8------10--------------------|
|----------------------------------12-------------------------10-------------------------|
|----------------------------------------------------------------------------------------|
|----------------------------------------------------------------------------------------|
|----------------------------------------------------------------------------------------|
    Trill    Theme 1
|--10-7-----------7--10-8---------------------17-------------------|---------------------|
|-------8-6-5--8---------------15-17-18-17-18----13-12(13)--13-13--|--10---11-13-15-10-8-|
|------------------------------------------------------------------|---------------------|
|------------------------------------------------------------------|---------------------|
|------------------------------------------------------------------|---------------------|
|------------------------------------------------------------------|---------------------|

|-------------------13-10------------------15-12--------------------------------13----13-|
|--8---10-11-13-6---------11---13-11-10-11-------13-13-11(13)---11-10-11-10-8-6----------|
|----------------------------------------------------------------------------------------|
|----------------------------------------------------------------------------------------|
|----------------------------------------------------------------------------------------|
|----------------------------------------------------------------------------------------|

|-----10-12-13------7-8-10--13-12----10-8-7---------------------5--8-10-12--10----8p7h8--|
|-------------------------------------------10--8--6---8-6-5-6---------------------------|
|--------------12------------------------------------------------------------------------|
|----------------------------------------------------------------------------------------|
|----------------------------------------------------------------------------------------|
|----------------------------------------------------------------------------------------|
    Trill    Theme 2
|--10-7-----------7--10-8------10-12-13-12-13-17-------------------|--11----10-8---------|
|-------8-6-5--8---------------------------------13-12(13)--13-13--|-------------11-10---|
|------------------------------------------------------------------|---------------------|
|------------------------------------------------------------------|---------------------|
|------------------------------------------------------------------|---------------------|
|------------------------------------------------------------------|---------------------|
Trill
|--------------6-8-10-11-14-17------------------------------\18----18-----17--15--17-14--|
|--8--7---8-10-----------------13---15-16-15-13-11(13)-10-8------------------------------|
|----------------------------------------------------------------------------------------|
|----------------------------------------------------------------------------------------|
|----------------------------------------------------------------------------------------|
|----------------------------------------------------------------------------------------|

dip bar Trill  Theme 3
|--15------------------------------14-15---17-18-17(18)--15-15---|--17---18-17-15-17-----|
|--------18--16-15h16p15-----------------------------------------|-----------------------|
|------------------------17--15-14-------------------------------|-----------------------|
|----------------------------------------------------------------|-----------------------|
|----------------------------------------------------------------|-----------------------|
|----------------------------------------------------------------|-----------------------|


|---17---22-20--18-17----18-17---22-18-------------------------------------20------------|
|---------------------20---------------20-18h20p18-17-18-17----15--------------16-15-16--|
|-----------------------------------------------------------------17-17------------------|
|----------------------------------------------------------------------------------------|
|----------------------------------------------------------------------------------------|
|----------------------------------------------------------------------------------------|


|-------------17--------------20-18-18------------17-18-15------17--------------18-17-17-|
|---13-----------16-15-20-19-------------20-19-20------------------15-13-18-17-----------|
|------12--------------------------------------------------17----------------------------|
|---------13-----------------------------------------------------------------------------|
|----------------------------------------------------------------------------------------|
|----------------------------------------------------------------------------------------|

 Guitar Solo
|-----19-20------------17-----15-15-------------------------------------|----------------|
|-----------18---18-20-----15--------18-17-15-15-17-18-18---17--15--13--|--6-8-5-6---5---|
|-----------------------------------------------------------------------|----------7---5-|
|-----------------------------------------------------------------------|----------------|
|-----------------------------------------------------------------------|----------------|
|-----------------------------------------------------------------------|----------------|

         Dip Bar
|----------------------------------------------------------------------------------------|
|-------------------------------------------6--5-6-8-6-8-10-8-6-5-6-8-8------------------|
|--7-------------------------------------5-7----------------------------5-5---7-5---3-2--|
|----/5-3-5-7-3-5-2-3--5------------5-7-8------------------------------------------------|
|------------------------5-----5-7-8-----------------------------------------------------|
|-----------------------------8----------------------------------------------------------|


|------------------------------10----12----13----12----10----8---------------------------|
|---------------------------10----10----10----10----10----10---8-10-----8-10-6-8-5-6-----|
|--3-5-3-2---------------------------------------------------------------------------7---|
|-----------5-3-2-3----\-----------------------------------------------------------------|
|----------------------------------------------------------------------------------------|
|----------------------------------------------------------------------------------------|


|-----------------------------------------15`--15-15-15^------------12-13-15----------13-|
|-5-6------------------------------------------------------11-13-15----------13-15-17----|
|-----7-...------------------------------------------------------------------------------|
|----------------------------------------------------------------------------------------|
|----------------------------------------------------------------------------------------|
|----------------------------------------------------------------------------------------|


|--15-17-18--17--15--20---17----15-17----15----------------------------------------------|
|----------------------------17-------18----15----15-18-17-18-13-18-17-18----18-17-18----|
|-------------------------------------------------------------------------15----------14-|
|----------------------------------------------------------------------------------------|
|----------------------------------------------------------------------------------------|
|----------------------------------------------------------------------------------------|


|-----------------------20----------13-17----19----20----22`--...------------------------|
|--18-17-18-15-18-17-18-----18--17--------15----17----17---------------------------------|
|----------------------------------------------------------------------------------------|
|----------------------------------------------------------------------------------------|
|----------------------------------------------------------------------------------------|
|----------------------------------------------------------------------------------------|

 Theme 4
|--------------------------------------------------------------------13-10---------------|
|-10-----8-11-10-13-11-15---15--8-8----6-10-8-11-10-13---13-13-------------11---13-11-10-|
|---------------------------------------------------------------10-----------------------|
|----------------------------------------------------------------------------------------|
|----------------------------------------------------------------------------------------|
|----------------------------------------------------------------------------------------|

  trill
|-----15-12---------------------------13-----13-----10-12-13--------7-10-13-12----10-8-7-|
|-11--------13-13-11(13)-10-11-10-8-6----------------------------------------------------|
|------------------------------------------------------------12--------------------------|
|----------------------------------------------------------------------------------------|
|----------------------------------------------------------------------------------------|
|----------------------------------------------------------------------------------------|


|---------------------5--8-10-12-10----8-7-8-10-7-----------7--10-8----------------------|
|--10--8--6---8-6-5-6-----------------------------8-6-5--8----------------15-17-18-17-18-|
|----------------------------------------------------------------------------------------|
|----------------------------------------------------------------------------------------|
|----------------------------------------------------------------------------------------|
|----------------------------------------------------------------------------------------|

  trill  Theme 5
|--17--------------------|----------------------------10--8--6--5-----6-5---10--6--------|
|-----13--12(13)--13-13--|--10----11-10-8-10-----------------------8---------------8--6h-|
|------------------------|--------------------9--10--------------------------------------|
|------------------------|---------------------------------------------------------------|
|------------------------|---------------------------------------------------------------|
|------------------------|---------------------------------------------------------------|

 trill
|-------------------------8------------------5---------8-6-6--------5-6-5----5---------6-|
|-8p6-5-6-5(6)---3-----------4-3-4-------------4-3-8-7--------8-7-8------------3-1-6-5---|
|------------------5-5--------------5-------------------------------------7--------------|
|-------------------------------------5--------------------------------------------------|
|---------------------------------------6------------------------------------------------|
|----------------------------------------------------------------------------------------|


|--5-5----7-8--------5---3-3-------------------------------------------------------------|
|-------------6--6-8---3-----6-5-3--3-5-6-6--5-3-----------------------------------------|
|------------------------------------------------5---repeat-and--------------------------|
|-----------------------------------------------------fade-out---------------------------|
|----------------------------------------------------------------------------------------|
|----------------------------------------------------------------------------------------|
Tap to rate this tab
# A B C D E F G H I J K L M N O P Q R S T U V W X Y Z