Song name
# A B C D E F G H I J K L M N O P Q R S T U V W X Y Z

Vinnie Vincent Invasion - That Time Of Year tab

E-------0-----------0-------------0-----------0------|   }
B----6-----6-----6-----6-------6-----6-----6-----6---|   }
G-------------7------------5------------5------------|   }  repeat 4 times,
D--0-------------------------------------------------|   }     then play:
A----------------------------------------------------|   }
E----------------------------------------------------|   }


E--5--------------0--------5-----------0-------------|
B-----8--------6-----6--------8-----6----------------|
G--------7-----------------------7--------7----------|
D-----------8-----------8--------------------8-------|
A----------------------------------------------------|
E----------------------------------------------------|


E-------0-----------0--------------------------------|
B----6-----6-----6-----6-----------------------------|
G-------------7--------------------------------------|
D--0----------------------------------------------0--|
A-------------------------------------0--1--2--3-----|
E-------------------------0--1--2--3-----------------|

Good luck & enjoy!
Tap to rate this tab
# A B C D E F G H I J K L M N O P Q R S T U V W X Y Z