Song name
# A B C D E F G H I J K L M N O P Q R S T U V W X Y Z

Vinskvetten - Ronny Bruvik tab

Artist:     Vinskvetten
song:       Rånny Bruvik
Tabber:     Stian Kvalsund
            stian_rock@hotmail.com


Okei so this is a Norwegian song from vinskvetten and I cind of liked the song and riffs 
so I choosed to tab this for you guys, so enjoy! and dont forget to leave comments!


Intro:
E-----------------|-----------------|-----------------|-----------------|
B---8---8---8---8-|---8---8---8---8-|---8---8---8---8-|--8---8---8---8--|
G---12--10--9---8-|---12--10--9---8-|---12--10--9---8-|--12--10--9---8--|
D-----------------|-----------------|-----------------|-----------------|
A-----------------|-----------------|-----------------|-----------------|
E-----------------|-----------------|-----------------|-----------------|


E---------------------------|---------------------------|
B---13---13---13---13-------|---8---8---8---8-----------|
G---17---15---14---13-------|---12--10--9---8-----------|
D---------------------------|---------------------------|
A---------------------------|---------------------------|
E---------------------------|---------------------------|

Keyboard....

and then
E-----------------|
B---8---8---8---8-|
G---12--10--9---8-|
D-----------------|
A-----------------|
E-----------------|



ref:
E-----------------------------------------------------------------|
B-----------------------------------------------------------------|
G-----------------------------------------------------------------|
D---8-8-8-8-8---10-10-10-10----13-13-13-13-13----12-12-12-12------|
A---8-8-8-8-8---10-10-10-10----13-13-13-13-13----12-12-12-12------|
E---6-6-6-6-6----8--8--8--8----11-11-11-11-11----10-10-10-10------|


E-----------------------------------------------------------------|
B-----------------------------------------------------------------|
G-----------------------------------------------------------------|
D---8-8-8-8-8---10-10-10-10----13-13-13-13-13----12-12-12-12------|
A---8-8-8-8-8---10-10-10-10----13-13-13-13-13----12-12-12-12------|
E---6-6-6-6-6----8--8--8--8----11-11-11-11-11----10-10-10-10------|




and then the intro verse again.--------

E-----------------|-----------------|-----------------|-----------------|
B---8---8---8---8-|---8---8---8---8-|---8---8---8---8-|--8---8---8---8--|
G---12--10--9---8-|---12--10--9---8-|---12--10--9---8-|--12--10--9---8--|
D-----------------|-----------------|-----------------|-----------------|
A-----------------|-----------------|-----------------|-----------------|
E-----------------|-----------------|-----------------|-----------------|



E---------------------------|---------------------------|
B---13---13---13---13-------|---8---8---8---8-----------|
G---17---15---14---13-------|---12--10--9---8-----------|
D---------------------------|---------------------------|
A---------------------------|---------------------------|
E---------------------------|---------------------------|

Keyboard....

and then
E-----------------|
B---8---8---8---8-|
G---12--10--9---8-|
D-----------------|
A-----------------|
E-----------------|




ref:

E-----------------------------------------------------------------|
B-----------------------------------------------------------------|
G-----------------------------------------------------------------|
D---8-8-8-8-8---10-10-10-10----13-13-13-13-13----12-12-12-12------|
A---8-8-8-8-8---10-10-10-10----13-13-13-13-13----12-12-12-12------|
E---6-6-6-6-6----8--8--8--8----11-11-11-11-11----10-10-10-10------|


E-----------------------------------------------------------------|
B-----------------------------------------------------------------|
G-----------------------------------------------------------------|
D---8-8-8-8-8---10-10-10-10----13-13-13-13-13----12-12-12-12------|
A---8-8-8-8-8---10-10-10-10----13-13-13-13-13----12-12-12-12------|
E---6-6-6-6-6----8--8--8--8----11-11-11-11-11----10-10-10-10------|





vers:
E-----------------|-----------------|-----------------|-----------------|
B---8---8---8---8-|---8---8---8---8-|---8---8---8---8-|--8---8---8---8--|
G---12--10--9---8-|---12--10--9---8-|---12--10--9---8-|--12--10--9---8--|
D-----------------|-----------------|-----------------|-----------------|
A-----------------|-----------------|-----------------|-----------------|
E-----------------|-----------------|-----------------|-----------------|



E---------------------------|---------------------------|
B---13---13---13---13-------|---8---8---8---8-----------|
G---17---15---14---13-------|---12--10--9---8-----------|
D---------------------------|---------------------------|
A---------------------------|---------------------------|
E---------------------------|---------------------------|

Keyboard....

and then
E-----------------|
B---8---8---8---8-|
G---12--10--9---8-|
D-----------------|
A-----------------|
E-----------------|




ref:

E-----------------------------------------------------------------|
B-----------------------------------------------------------------|
G-----------------------------------------------------------------|
D---8-8-8-8-8---10-10-10-10----13-13-13-13-13----12-12-12-12------|
A---8-8-8-8-8---10-10-10-10----13-13-13-13-13----12-12-12-12------|
E---6-6-6-6-6----8--8--8--8----11-11-11-11-11----10-10-10-10------|


E-----------------------------------------------------------------|
B-----------------------------------------------------------------|
G-----------------------------------------------------------------|
D---8-8-8-8-8---10-10-10-10----13-13-13-13-13----12-12-12-12------|
A---8-8-8-8-8---10-10-10-10----13-13-13-13-13----12-12-12-12------|
E---6-6-6-6-6----8--8--8--8----11-11-11-11-11----10-10-10-10------|





outro:
E-----------------|-----------------|-----------------|-----------------|
B---8---8---8---8-|---8---8---8---8-|---8---8---8---8-|--8---8---8---8--|
G---12--10--9---8-|---12--10--9---8-|---12--10--9---8-|--12--10--9---8--|
D-----------------|-----------------|-----------------|-----------------|
A-----------------|-----------------|-----------------|-----------------|
E-----------------|-----------------|-----------------|-----------------|



E---------------------------|---------------------------|
B---13---13---13---13-------|---8---8---8---8-----------|
G---17---15---14---13-------|---12--10--9---8-----------|
D---------------------------|---------------------------|
A---------------------------|---------------------------|
E---------------------------|---------------------------|


Thanks!
Tap to rate this tab
 
# A B C D E F G H I J K L M N O P Q R S T U V W X Y Z