Song name
# A B C D E F G H I J K L M N O P Q R S T U V W X Y Z

Vintage Trouble - Gracefully chords

Highlighted       Show chord diagrams
VINTAGE TROUBLE 
GRACEFULLY

transcribed by: Luiz Mello - www.luizmello.net.br
 
Intro: G EbAug C D (3x)

G               EbAug          C
I was lost and alone in the shadows
           D
Dark in my mind

G              EbAug          C
My heart was trampled in the battle
             D
Love left me blind


G               EbAug          C
Then came around and found me, baby
           A7
You took my hand
    (Fill 1) D             C     Bm     Am    ---> see tab below 
And made me stand like the man I am again


        G                      Bm
Do you see what you’ve done to me
         C               D
Gone and washed away my misery
           G
With your touch
      C           G       D7
You love me gracefully


I was shattered into pieces
Torn to the bone
And nothing mattered. No reason
To come from under my Stone


Then like the sun you fell over me, baby
You hit my eyes
And made me rise and fly and shine again



        G                      Bm
Do you see what you’ve done to me
         C              D
Gone and washed away my misery
           G
With your touch
      C           G       G7
You love me gracefully


              C
I'd 'bout given up on it all
                     G
Every single little hope and dream
   G7                C
Then you heard it and answered my call
           D
When you lifted me
[ch]F#/A[/ch]    Em/G   D/F#  C/E  [ch]Bm/D[/ch]  Am/E  G      ---> see tab below 
Lif-----ted    me   o-----ver   the   wall   


SOLO   [ G      EbAug      C             D    ]    (3X)

        G                      Bm
Do you see what you’ve done to me
         C              D
Gone and washed away my misery
        G                      Bm
Do you see what you’ve done to me          
       C                        D
Send away the misery
                G
With your sweet touch
      C           G              
You love me  gracefully
      C           G              
You love me  gracefully
     C           C   Bm  Am   G                
Love me  Gracefully 


Fill 1

|-------------------------------------------| 
|-----7---------5--------3----------1-------|
|-------5---------4--------0----------0-----|
|---7---------5--------4----------2---------|
|-------------------------------------------|
|-------------------------------------------|


  F#°/A    Em/G   D/F#    C/E  [ch]Bm/D[/ch]  Am/E  G
|--14------12-----10------8----7-----5-----3-----| 
|--13------12-----10------8----7-----5-----3-----|
|--14------12-----11------9----7-----5-----4-----|
|------------------------------------------------|
|------------------------------------------------|
|------------------------------------------------|

 EbAug       EbAug  
|--4--|     |--x--| 
|--0--|     |--4--| 
|--0--|  or |--4--| 
|--1--|  ou |--5--| 
|--2--|     |--6--| 
|--3--|     |--x--| 
Tap to rate this tab
 
# A B C D E F G H I J K L M N O P Q R S T U V W X Y Z