Song name
# A B C D E F G H I J K L M N O P Q R S T U V W X Y Z

Vintersorg - Enigmatic Spirit tab

-------------------------------------------------------------------------------
			     The Enigmatic Spirit (solo) - Vintersorg
-------------------------------------------------------------------------------
Tabbed by: hermpes
Email: hermpes@hemophlam.com

Tuning: Standard E

e|------------------------------------------------------12-10-----------10-------|
B|-----------8------------------------------------------------13p12h13-----13-12-|
G|-7h9-9--10---10-10-9-7-9-7h9p7----7--------------------------------------------|
D|-------------------------------10---10-9-7-6-7-6-7-----------------------------|
A|---------------------------------------------------0---------------------------|
E|-------------------------------------------------------------------------------|


e|-------------------------------------------------------------|
B|-12h13-9--8-12-10--5-5h6---5--------5-6-5---------------5----|
G|-------------------------7----7-5-7-------7-5-------5-7------|
D|----------------------------------------------7-7-7----------|
A|-------------------------------------------------------------|
E|-------------------------------------------------------------|
Tap to rate this tab
 
# A B C D E F G H I J K L M N O P Q R S T U V W X Y Z