Song name
# A B C D E F G H I J K L M N O P Q R S T U V W X Y Z

Vio-lence - Calling In The Coroner tab

-------------------------------------------------------------------------------
			     Calling in the Coroner (Intro) - Vio-lence
-------------------------------------------------------------------------------
Tabbed by: Busproof
Email: busproof@yahoo.com

Tuning: Standard (EADGBe)

Intro Riff (RIFF A)

e|-----------------------------------------------------------------|
B|-----------------------------------------------------------------|
G|-----------------------------------------------------------------|
D|---------------------------0-4-----------------------------------|
A|---------------------------0-2-----------------------------1-----|
E|-2p0-2p0-2p0-2p0-2p0-2p0-2-------2p0-2p0-2p0-2p0-2-1-0-1-2---3---|
   x x x x x x x x x x x x x       x x x x x x x x x x x x x

e|-----------------------------------------------------------------|
B|-----------------------------------------------------------------|
G|-----------------------------------------------------------------|
D|---------------------------0-4-----------------------------------|
A|---------------------------0-2-----------------------------5-3---|
E|-2p0-2p0-2p0-2p0-2p0-2p0-2-------2p0-2p0-2p0-2p0-2-1-0-1-2-------|
   x x x x x x x x x x x x x       x x x x x x x x x x x x x

e|-----------------------------------------------------------------|
B|-----------------------------------------------------------------|
G|-----------------------------------------------------------------|
D|---------------------------0-4-----------------------------3-----|
A|-4---4---4---4---4---4---4-0-2---4---4---4---4---4-3-2-3-4-1-5---|
E|-2p0-2p0-2p0-2p0-2p0-2p0-2-------2p0-2p0-2p0-2p0-2-1-0-1-2---3---|
   x x x x x x x x x x x x x       x x x x x x x x x x x x x

e|-----------------------------------------------------------------|
B|-----------------------------------------------------------------|
G|-----------------------------------------------------------------|
D|---------------------------0-4-----------------------------7-5---|
A|-4---4---4---4---4---4---4-0-2---4---4---4---4---4-3-2-3-4-5-3---|
E|-2p0-2p0-2p0-2p0-2p0-2p0-2-------2p0-2p0-2p0-2p0-2-1-0-1-2-------|
   x x x x x x x x x x x x x       x x x x x x x x x x x x x

Intro Break

e|-------------------------------------------------|
B|-------------------------------------------------|
G|-------------------------------------------------|
D|---3-2-0-----3-2-0-----3-2-0-----3-2-0-----------|
A|-4---------4---------4---------4-----------------|
E|-------------------------------------------------|
                                 x x x x

Verse Riff (RIFF B)

e|-----------------------------------------------------------------|
B|-----------------------------------------------------------------|
G|---------------------------2---3---------------------------------|
D|-4-2-4---------5---2---4---2---3-4-2-4-----------------3---5---7-|
A|-4-2-4---------5---2---4---------4-2-4-----------------1---3---5-|
E|-------2-2-2-2---2---2---2-------------2-2-2-2-2-2-2-2-----------|
        x x x x   x   x   x             x x x x x x x x

e|-----------------------------------------------------------------|
B|-----------------------------------------------------------------|
G|---------------------------2---3---------------------------------|
D|-4-2-4---------5---2---4---2---3-4-2-4-----------------7---5---3-|
A|-4-2-4---------5---2---4---------4-2-4-----------------5---3---1-|
E|-------2-2-2-2---2---2---2-------------2-2-2-2-2-2-2-2-----------|
        x x x x   x   x   x             x x x x x x x x

Pre-Solo (RIFF Ca)          (You play the parts in brackets on the second and third repeat)

e|-----------------------------------------------------------------|
B|-----------------------------------------------------------------|
G|-----------------------------------------------2-4-2-5-2-4-2-8)--|
D|--------------------------------------------(4-0-2-0-3-0-2-0-6---|
A|-2---2---3---2-----------5---6---2---2---3---2-------------------|
E|-0---0---1---0---0-0-0-0-3---4---0---0---1-----------------------|
                  x x x x                     x x x x x x x x x
(RIFF Cb)

e|-----------------------------------------------------------------|
B|-----------------------------------------------------------------|
G|-----------------------------------------------------------------|
D|-----------------------------------------------------------------|
A|-2---2---3---2-----------5---6---2---2---3---2-------------------|
E|-0---0---1---0---0-0-0-0-3---4---0---0---1---0---0\ \ \ / / / / /|
                  x x x x                         Slide down, and back up...


Solo-Rhythm (RIFF D)

e|-----------------------------------------------------------------|
B|-----------------------------------------------------------------|
G|-----------------------------------------------------------------|
D|-----------------------------------------------0-2-0-3-0-2-0-6---|
A|-2---2---3---2-----------5---6---2---2---3---2-------------------|
E|-0---0---1---0---0---0---3---4---0---0---1-----------------------|
                   x   x                         x x x x x x x x

e|-----------------------------------------------------------------|
B|-----------------------------------------------------------------|
G|-----------------------------------------------------------------|
D|-----------------------------------------------0-2-0-3-0-2-0-6---|
A|-2---2---3---2-----------5---6---2---2---3---2-------------------|
E|-0---0---1---0---0-0-0-0-3---4---0---0---1-----------------------|
                   x x x x                       x x x x x x x x

e|-----------------------------------------------------------------|
B|-----------------------------------------------------------------|
G|-----------------------------------------------------------------|
D|-----------------------------------------------0-2-0-3-0-2-0-6---|
A|-2---2---3---2-----------5---6---2---2---3---2-------------------|
E|-0---0---1---0---0---0---3---4---0---0---1-----------------------|
                   x   x                         x x x x x x x x

e|-----------------------------------------------------------------||
B|-----------------------------------------------------------------||
G|-----------------------------------------------------------------||
D|-----------------------------------------------------------------||
A|-2---2---3---2-----------5---6---2---2---3---2---2---------------||
E|-0---0---1---0---0-0-0-0-3---4---0---0---1---0---0---------------||
                   x x x x

(RIFF Ea)

e|-----------------------------------------------------------------|
B|-----------------------------------------------------------------|
G|-----------------------------------------------------------------|
D|---------3-----3---------7---------------3-----3---------7-------|
A|---------1-----1---------5---5\4---------1-----1---------5---5\4-|
E|-0-2-3-0---2-3---0-2-3-0---0-3\2-0-2-3-0---2-3---0-2-3-0---0-3\2-|
   x x x x   x x   x x x x   x     x x x x   x x   x x x x   x

(RIFF Eb)

e|-----------------------------------------------------------------|
B|-----------------------------------------------------------------|
G|-----------------------------------------------------------------|
D|---------3-----3---------7---------------3-----5-------7---7-7---|
A|---------1-----1---------5---5\4---------1-----3-------5---5-5---|
E|-0-2-3-0---2-3---0-2-3-0---0-3\2-0-2-3-0---2-3-----3-0-----------|
   x x x x   x x   x x x x   x     x x x x   x x     x x

-RIFF LAYOUT-

RIFF A
FILL
RIFF A
RIFF B
RIFF B
RIFF A
RIFF B
RIFF B
RIFF A
RIFF B
RIFF B
RIFF Ca
RIFF Ca
RIFF Ca
RIFF Cb
RIFF D
RIFF Ea
RIFF Ea
RIFF Ea
RIFF Eb

---

I'm sure there's errors in here out the wazoo, but then again, its my first tab, and it 
exactly an easy song :) Feel free to email me with suggestions or opinions, and check 
for the update with the solo once I get the glitches out. enjoy!

===============================================================================
| p  Pull Off
| h  Hammer-on
| x  Mute note
===============================================================================
Tap to rate this tab
# A B C D E F G H I J K L M N O P Q R S T U V W X Y Z