Song name
# A B C D E F G H I J K L M N O P Q R S T U V W X Y Z

Vio-lence - Officer Nice tab

Vio-Lence-Officer Nice
Album:Oppressing The Masses

Okay I saw the video of this song which was old and it just blew my mind and wanted to 
punch a wall.But I heard it on the album and it wasn't compared to the live one cause it 
a different tune so I don't have the solo yet so this is what I came up with:

E|------------------------------------------------------|(3x and then pause
B|------------------------------------------------------|and play it one la
G|------------------------------------------------------|last time)
D|--7-7--(10)------7-7-10---7-7--9----------------------|
A|--5-5--(8)-------5-5-8----5-5--7-------(2)------------|
E|---------------------------------------(0)------------|

E|------------------------------------------------------|(Riff 1)
B|------------------------------------------------------|
G|------------------------------------------------------|
D|------------------------------------------------------|
A|-6/4\7-----7h8-----5h7----7/5\8-----------------------|
E|-4/2\5---00-----00--------5/3\6-----------------------|


E|-----------------------------------------------------|(Riff 2)
B|-----------------------------------------------------|
G|-----------------------------------------------------|
D|-----------------------------------------------------|
A|-----------------------6/4\7-------------------------|
E|--00-3h4--00-1h3-------4/2\5-------------------------|


E|------------------------------------------------------|
B|------------------------------------------------------|
G|------------------------------------------------------|
D|------------------------------------------------------|
A|---2----2----2----2------------------(3)----6/4\7-----|
E|-000--000--000--000--1h3p1h4---------(1)----4/2\5-----|


D|--------------------------------------------------------------------------|
A|--------------------------------------------------------------------------|
E|-00000000-1h3p1h4---00000000-1h3p1h4--00000000-1h3p1h4--00000000-1h3p1h4--|


D|-----------------------------------------------------------------|
A|-2-2-332---6-4-7--6-4-3------------------------------------------|
E|-0-0-110---4/2\5--4-2-1------------------------------------------|
                    . . .
E|------------------------------------------------------|
B|------------------------------------------------------|
G|------------------------------------------------------|
D|------------------------------------------------------|
A|------------------------------------------------------|
E|-00000000--1h4--00000000--1h3--00000000-1h3-1h4-------|
   ........       ........       ........

E|------------------------------------------------------|
B|------------------------------------------------------|
G|------------------------------------------------------|
D|------------------------------------------------------|
A|---------------2-7-4-6--------------------------------|
E|00000000--1h4--0-5-2-4--------------------------------|
  ........

E|------------------------------------------------------|
B|------------------------------------------------------|
G|------------------------------------------------------|
D|------------------------------------------------------|
A|-222-222-222-222-222-222-222--------------------------|
E|-000-000-000-000-000-000-000--------------------------|
   ... ... ... ... ... ... ...

E|------------------------------------------------------|(W/solo)
B|------------------------------------------------------|
G|------------------------------------------------------|
D|---9-----5---9-------------9-----5----9---------------|
A|---7-----3---7--8-7--------7-----3----7--5-4----------|
E|-0----00---00---6-5------0----00----00---3-2----------|

There you have it just try to listen to it while your reading this
Tap to rate this tab
# A B C D E F G H I J K L M N O P Q R S T U V W X Y Z