Song name
# A B C D E F G H I J K L M N O P Q R S T U V W X Y Z

Vio-lence - Serial Killer tab

.  - palm mute           /  - slide up to
\  - slide down to       ~  - vibrato
h  - hammer on           b  - Bend
p  - pull off            Suffixes for bend
t  - tap                 f  - full bend    h - half bend
ph - pinched harmonic    q  - quarter bend t - tap bend
*  - see comment         ^  - Hold bend    r release bend
x  - Staccato            ~  - vibrato bend
,  - slight palm mute    () - ghost note, sustained note
"  - tremolo note        tr - Trill


Tuning E A D G B E

                                                                 |
0:01                                   '11' played accidentally  v
|----------------------------------------------------------------------|
|----------------------------------------------------------------------|
|----------------------------------------------------------------------|
|-9-------10--9-7-9----------10-9--9\----------------------------------|
|-7-------8---7-5-7-------9--8--7--7\--------------1077797771077712777-|
|---000000----------0000007------------000000000000--------------------|
    ......          .......  .  .      ...............................

|----------------------------------------------------------------------|
|----------------------------------------------------------------------|
|----------------------------------0-----------------\\\\\\\\\\\\\\\\\-|
|-9-------10-9--7--9---------10-9--0-----------------\\\\\\\\\\\\\\\\\-|
|-7-------8--7--5--7------9--8--7--------------------------------------|
|---000000----------0000007--------------------------------------------|
    ......          ......


0:10
|----------------------------------------------------------------------|
|----------------------------------------------------------------------|
|----------------------------------------------------------------------|
|-9-------10-9--7--9---------10-9--9\----------------------------------|
|-7-------8--7--5--7------9--8--7--7\--------------1077797771077712777-|
|---000000----------0000007------------000000000000--------------------|
    ......          ......             ...............................

|-------------------------------------------------------------------|
|-------------------------------------------------------------------|
|-------------------------------------------------------------------|
|-9-------10-9--7--9---------10-9--9\-------------------------------|
|-7-------8--7--5--7------9--8--7--7\--------------------------4----|
|---000000----------0000007------------0000000000003000200030002----|   x2
    ......          ......             .........................


0:27

|----------------------------------------------------------------------|
|----------------------------------------------------------------------|
|-9-------10-9--7--9---------10-9--9\----------------------------------|
|-7-------8--7--5--7------9--8--7--7\--------------1077797771077712777-|
|---000000----------0000007------------000000000000--------------------|
|----------------------------------------------------------------------|
    ......          ......             ...............................


|-------------------------------------------------------------------|
|-------------------------------------------------------------------|
|-9-------10-9--7--9---------10-9--9\-------------------------------|
|-7-------8--7--5--7------9--8--7--7\--------------------------4----|
|---000000----------0000007------------0000000000003000200030002----|
|-------------------------------------------------------------------|
    ......          ......             .........................


0:35
|-------------------------------------------------------------------|
|-------------------------------------------------------------------|
|-------------------------------------------------------------------|
|-------------------------------------------------------------------|
|-77777777---------------------------------888888887777888877775555-|
|---------777777777888888883333333355555555-------------------------|
  .................................................................

|---------------------------------------------------|
|---------------------------------------------------|
|---------------------------------------------------|
|-9-------------------------------------------------|
|-7-------9--------10------5-------7-------3--3--3--|
|---------7--------8-------3-------5-------1--1--1--|
                                           .  .  .

0:43
|-------------------------------------------------------------------|
|-------------------------------------------------------------------|
|-------------------------------------------------------------------|
|-------------------------------------------------------------------|
|-----------5---4---------4--5--4------------5---4---------4--5--4--|
|-00000000003---2-000000002--3--2--00000000003---2-000000002--3--2--|
  ..........      ........         ..........      ........

|-------------------------------------------------------------------|
|-------------------------------------------------------------------|
|-------------------------------------------------------------------|
|--------------------------------------------------7--7--7--7--7--7-|
|-----------5---4---------4--5--4------------5---4-5--5--5--5--5--5-|
|-00000000003---2-000000002--3--2--00000000003---2------------------|
  ..........      ........         ..........


0:51 (Under solo)
|----------------------------------------------------------------------|
|----------------------------------------------------------------------|
|----------------------------------------------------------------------|
|-9-------10-9--7--9---------10-9--9\----------------------------------|
|-7-------8--7--5--7------9--8--7--7\--------------1077797771077712777-|
|---000000----------0000007------------000000000000--------------------|
    ......          ......             ...............................

|-------------------------------------------------------------------|
|-------------------------------------------------------------------|
|-------------------------------------------------------------------|
|-9-------10-9--7--9---------10-9--9\-------------------------------|
|-7-------8--7--5--7------9--8--7--7\--------------------------4----|
|---000000----------0000007------------0000000000003000200030002----|
    ......          ......             .........................


0:59 (Under solo)
|----------------------------------------------------------------------|
|----------------------------------------------------------------------|
|-9-------10-9--7--9---------10-9--9\----------------------------------|
|-7-------8--7--5--7------9--8--7--7\--------------1077797771077712777-|
|---000000----------0000007------------000000000000--------------------|
|----------------------------------------------------------------------|
    ......          ......             ...............................


|-------------------------------------------------------------------|
|-------------------------------------------------------------------|
|-9-------10-9--7--9---------10-9--9\-------------------------------|
|-7-------8--7--5--7------9--8--7--7\--------------------------4----|
|---000000----------0000007------------0000000000003000200030002----|
|-------------------------------------------------------------------|
    ......          ......             .........................


1:08
|-------------------------------------------------------------------|
|-------------------------------------------------------------------|
|-------------------------------------------------------------------|
|-------------------------------------------------------------------|
|-77777777---------------------------------888888887777888877775555-|
|---------777777777888888883333333355555555-------------------------|
  .................................................................

|---------------------------------------------------|
|---------------------------------------------------|
|---------------------------------------------------|
|-9-------------------------------------------------|
|-7-------9--------10------5-------7-------3--3--3--|
|---------7--------8-------3-------5-------1--1--1--|
                                           .  .  .


1:15
|-------------------------------------------------------------------|
|-------------------------------------------------------------------|
|-------------------------------------------------------------------|
|-------------------------------------------------------------------|
|-----------5---4---------4--5--4------------5---4---------4--5--4--|
|-00000000003---2-000000002--3--2--00000000003---2-000000002--3--2--|
  ..........      ........         ..........      ........

|-------------------------------------------------------------------|
|-------------------------------------------------------------------|
|-------------------------------------------------------------------|
|--------------------------------------------------7--7--7--7--7--7-|
|-----------5---4---------4--5--4------------5---4-5--5--5--5--5--5-|
|-00000000003---2-000000002--3--2--00000000003---2------------------|
  ..........      ........         ..........


Same parts again.  (1:23 - 1:55)


1:56
|-------------------------------------------------------------------|
|-------------------------------------------------------------------|
|-------------------------------------------------------------------|
|-------------------------------------------------------------------|
|-----------109-----------10--9-10----------109-----------10--9-10--|
|-00000000008-7---000000008---7-8-00000000008-7---000000008---7-8---|  x2
  ..........      ........        ..........      ........


2:05
|-------------------------------------------------------------------|
|-------------------------------------------------------------------|
|-------------------------------------------------------------------|
|-----------109-----------10-9--10----------109-----------10-9--10--|
|-00000000008-7---000000008--7--8-00000000008-7---000000008--7--8---|
|-------------------------------------------------------------------|  x2
  ..........      ........        ..........      ........


2:14 (Under solo)
|-------------------------------------------------------------------|
|-------------------------------------------------------------------|
|-------------------------------------------------------------------|
|-------------------------------------------------------------------|
|---------------------------------------------------------10--9-10--|
|-000000000000000000000000000000000000000000000000000000008---7-8---|  x2
  ........................................................


2:22 (Under solo)
|-------------------------------------------------------------------|
|-------------------------------------------------------------------|
|-------------------------------------------------------------------|
|---------------------------------------------------------10--9-10--|
|-000000000000000000000000000000000000000000000000000000008---7-8---|
|-------------------------------------------------------------------|  x2
  ........................................................


2:31
|-------------------------------------------------------------------|
|-------------------------------------------------------------------|
|-------------------------------------------------------------------|
|-10--------------9---------------10----------12-109----------------|
|-8-888888888888887-777777777777778-888888888810-8-77777777777777---|
|-------------------------------------------------------------------|
    ..............  .............   ..........     ..............


|-------------------------------------------------------------------|
|-------------------------------------------------------------------|
|-------------------------------------------------------------------|
|-10------9---10--9-------7---8-------------------------------------|
|-8-------7---8---7-------5---6---2-------2---2-------2---2---------|
|---------------------------------0-------0---0-------0---0---------|



2:39
|-------------------------------------------------------------------|
|-------------------------------------------------------------------|
|-------------------------------------------------------------------|
|-------------------------------------------------------------------|
|-77777777---------------------------------888888887777888877775555-|
|---------777777777888888883333333355555555-------------------------|
  .................................................................

|---------------------------------------------------|
|---------------------------------------------------|
|---------------------------------------------------|
|-9-------------------------------------------------|
|-7-------9--------10------5-------7-------3--3--3--|
|---------7--------8-------3-------5-------1--1--1--|
                                           .  .  .


2:46
|-------------------------------------------------------------------|
|-------------------------------------------------------------------|
|-------------------------------------------------------------------|
|-------------------------------------------------------------------|
|-----------5---4---------4--5--4------------5---4---------4--5--4--|
|-00000000003---2-000000002--3--2--00000000003---2-000000002--3--2--|
  ..........      ........         ..........      ........

|-------------------------------------------------------------------|-----|
|-------------------------------------------------------------------|-----|
|-------------------------------------------------------------------|-----|
|--------------------------------------------------7--7--7--7--7--7-|-9---|
|-----------5---4---------4--5--4------------5---4-5--5--5--5--5--5-|-7---|
|-00000000003---2-000000002--3--2--00000000003---2------------------|-----|
  ..........      ........         ..........
Tap to rate this tab
 
# A B C D E F G H I J K L M N O P Q R S T U V W X Y Z