Song name
# A B C D E F G H I J K L M N O P Q R S T U V W X Y Z

Violator - Uxfxtx United For Thrash tab

uxfxtx- violator

opening riff

E:---------------------------------------------------------------------------
B:---------------------------------------------------------------------------
G:---------------------------------------------------------------------------
D:------2---1h2p1-2-3-5-------2---1h2p1-5-4-8-----2---1h2p1-2-3-5------------
A:--0000--00------0-1-3--0000---00------3-2-6-0000--00------0-1-3------------
E:---------------------------------------------------------------------------

  -----------------------------]
  -----------------------------]
  -----------------------------]
  -----2-------5-4-7-8--8------]
  -0000-00-8-7-3-2-5-6--6------]
  ---------6-5-----------------]
 
-------------------------------------------------------------------------]
-------------------------------------------------------------------------]
-------------------------------------------------------------------------]
-----2--1h2p1---5-----2--1h2p1---8-----2--1h2p1--5-----2---------2-4-----]
-0000-00-----00-3-0000-00-----00-6-0000-00-----003-0000--00-8-7--3-2-----]
------------------------------------------------------------6-5----------]

-----------------------------------------------]
-----------------------------------------------]
-----------------------------------------------]
----------------------3---------------------8--]
------7h8p7----7h8p7--1-----7h8p7----7h8p7--6--]x2
-0000------0000-----00--0000-----0000-----00---] 

chorus
-------------------------------------------------------------]
-------------------------------------------------------------]
-------------------------------------------------------------]
-------------------------------------------------7-----------]
-2---5-7-8--5----------8----8--2--5-7-8--5-3--2--5-----------]
--------------0---3-5-6--3-00000000-6-00-6--0--3-5-6--3-1--0-]

01:20

-----------------------------------------------------------]
-----------------------------------------------------------]
-----------------------------------------------------------]
--10-9-8-9-------9-10-------10-9--8-9-------10-10-10-10----]
--8--7-6-7-------7-8--10-9--8--7--6-7-------8--8--8--8-----]
-0----0----000000-----8--7-0----0-----000000---------------]

01:38
-------------------------------------------------------------]
-------------------------------------------------------------]
-------------------------------------------------------------]
------8p7---------------------------------9-10---------------]
--8p7-----8p7-5h7--7h8-10-9---------------7-8--10------------]
-0---0---0---0---------8--7--0000000000000-----8-------------]

02:14
----------------------------------------------------------]
----------------------------------------------------------]
----------------------------------------------------------]
----------------------------------------------------------]
------7h8--6-----9-10-----7h8---6h7---5-7-8---------------]
--0000---00-0000-7-8--0000----00---00-3-5-6---------------]

02:27
------------------------------------------------------------]
------------------------------------------------------------]
------------------------------------------------------------]
------------------------------------------------------------]
-00000000-7h86h7h86h7-00000000-8-7-5-7-7--------------------]
-------------------------------6-5-3-5-5--------------------]

this is it! this is my first tab. THRASH!
Tap to rate this tab
 
# A B C D E F G H I J K L M N O P Q R S T U V W X Y Z