Violator - Destined To Die tab

destined to die - violator

E:-----------------------------------------------]-------------------]
B:-----------------------------------------------]-------------------]
G:-----------------------------------------------]-------------------]
D:--5-4-----------------3p2----------------------]-------------------]
A:--3-2-5-2----5----4----3p2-2----5----4---------]--2-----5----5-3---]
E:------3-0-00-3-00-2-00-----0-00-3-00-2-2132----]--0-000-3-00-3-1---]

00:28

-------------------------------------------]-----------------------]
-------------------------------------------]-----------------------]
-------------------------------------------]-----------------------]
-------------------------------------------]-----------------------]
-----------------------333333222222--------]----------------5-3----]
-0000000333333332222222------------333-----]-00000333332222-3-1----]

00:37                                           00:44  
             
----------------------------------------------]-----------]
----------------------------------------------]-----------]
----------------------------------------------]-----------]
---------------4-5----------------------------]-----------]
--------5-4----2-3-2------5-4----3-5-2--------]------5-4--]
-000000-3-2-00-----0-0000-3-2-00-1-3-0--------]-0000-3-2--]

01:34

-----------------------------------------------------------]
-----------------------------------------------------------]
-----------------------------------------------------------]
-------------------------------------------5-4-2-----------]
-------------------------------------------3-2-0-5-4-5-----]
-00-000-00-000-00-000-00-000-66-666-66-666-------3-2-3-----]

01:56

-------------------------------------------------------------------------]
-------------------------------------------------------------------------]
-------------------------------------------------------------------------]
--------------------------------------3p2--------------------------------]
-5----------4----------3-----------2---3p2--3------------4----------3----]
-3-00000000-2-00000000-1-000000000-0--------5-00000000---2-0000000--1----]

02:05

-------------------------------------------]
-------------------------------------------]
-------------------------------------------]
--3p2----8p7-------------3p2---------------]
----3p2----8p7-2-----------3p2-5-3---------]
---------------0-0000000-------3-1---------]

02:32

----------------------------------------------------------------]
----------------------------------------------------------------]
----------------------------------------------------------------]
---------------------------------------------------------4-3----]
-5-------------4----------87---5--------------4----3-----2-1----]
-3-00000000000-2-000--878---8--3-000000000000-2-00-1-00---------]

02:58

-----------------------------------------------------------]
-----------------------------------------------------------]
-----------------------------------------------------------]
------3-3----------3-3-----------3-3----------3---7-6-5----]
--2222-3-3-333-2222-3-3-111-2222--3-3-333-2222-3--5-4-3----]
-----------------------------------------------------------]

04:30

-------------------]-----------------------------]
-------------------]-----------------------------]
-------------------]-----------------------------]
-------------------]-----------------------------]
-2-2-2-2-2-2-3-4-5-]--2-2-2-2-2-2-5---2-5-3-2----]
-0-0-0-0-0-0-1-2-3-]--0-0-0-0-0-0-3---0-3-1-0----]

Tap to rate this tab
 
# A B C D E F G H I J K L M N O P Q R S T U V W X Y Z