Song name
# A B C D E F G H I J K L M N O P Q R S T U V W X Y Z

Violator - Ordered To Thrash tab

Violator-Ordered To Thrash

Violator is one of my favorite Thrash Metal bands out there.

I have tabbed this all out by ear. If you see ANYTHING wrong with this,or anything that 
does not sound right while playing along with the record, please tell me.

Intro:
E|---------|
B|---------|
G|---------|
D|-2-3---5-|
A|-0-1-5-3-|
E|-----3---|

Riff 1:
E|-----------------------------------------------------------------------------|
B|-----------------------------------------------------------------------------|
G|------------------------3p2p0------------------------------------3p2p0-------|
D|-2----------------3p2p0-------3p2p0-------2----------------3p2p0-------3-5-6-|
A|-0-00000000000000-------------------3p2p0-0-00000000000000-------------1-3-4-|
E|-----------------------------------------------------------------------------|

Riff 2:
E|-----------------------------------------------------------------|
B|-----------------------------------------------------------------|
G|-----------------------------------------------------------------|
D|-----------------------------3-----------------------------3-5-6-|
A|-0-000-0-0-000-0-0-000-0-0-0-1-0-000-0-0-000-0-0-000-0-0-0-1-3-4-|
E|-----------------------------------------------------------------|

Riff 3:
E|-------------------------------------------------------|
B|-------------------------------------------------------|
G|-------------------------------------------------------|
D|-------------3-------------5-------------3-----6-----5-|
A|-0-000-0-0-0-1-0-000-0-0-0-3-0-000-0-0-0-1-0-0-4-0-0-3-|
E|-------------------------------------------------------|

Riff 4:
E|----------------------------------------------------------------|
B|----------------------------------------------------------------|
G|----------------------------------------------------------------|
D|-----------6-5-------------5-4------------6-5-----5-4-------4-5-|
A|-0-000-0-0-----6-0-000-0-0-----5-0-000-0-0----6-0-----5-0-0-2-3-|
E|----------------------------------------------------------------|

Back to Riff 3:
E|-------------------------------------------------------|
B|-------------------------------------------------------|
G|-------------------------------------------------------|
D|-------------3-------------5-------------3-----6-----5-|
A|-0-000-0-0-0-1-0-000-0-0-0-3-0-000-0-0-0-1-0-0-4-0-0-3-|
E|-------------------------------------------------------|

Riff 5:
E|----------------------------------------------------------------------------|
B|----------------------------------------------------------------------------|
G|----------------------------------------------------------------------------|
D|-7---------------------8---------------------5--------5---------------------|
A|-5-555555-8p7p5-8p7p5--6-666666-9p8p6-9p8p6--3-333333-3-333333--3-----2-----|
E|------------------------------------------------------------------4-3---3-2-|

Riff 6:
E|----------------------------------------------------------------------------------------------|
B|----------------------------------------------------------------------------------------------|
G|--------------------------------------------------------------------------------------------8-|
D|-7-----------7-----10-----8-7---------7-----6------7-----------7-----10----8-7--------8-7---6-|
A|---0-0-0-0-0---0-0----0-0-----0-0-0-0---0-0---0-0----0-0-0-0-0---0-0----0-0---0-0-0-0-----0---|
E|----------------------------------------------------------------------------------------------|

Riff 7:                                                  "THRASH!"
E|-------------------------------------------------------|
B|-------------------------------------------------------|
G|-------------------------------------------------------|
D|-9-------10--9--------8-8--9--9--9--10--9--9--9--8-8-9-|
A|-7--------8--7--------6-6--7--7--7---8--7--7--7--6-6-7-|
E|-------------------------------------------------------|

Riff 8(Kinda like riff 6, but not quite):
E|------------------------------------------------------------------|
B|------------------------------------------------------------------|
G|------------------------------------------------------------------|
D|----------------------------------------------------------------8-|
A|-7-------7---10---8-7-----7--------7-------7---10---8-7-----7---6-|
E|---0-0-0---0----0-----0-0---8-7-6----0-0-0---0----0-----0-0---0---|

Riff 9:
E|---------------------------------------------------------------------------|
B|---------------------------------------------------------------------------|
G|---------------------------------------------------------------------------|
D|-2--------7-7------7-8--------5/7--7/8--2--------7-7------7-8--------7-5---|
A|-0--------5-5------5-6--------3/5--5/6--0--------5-5------5-6--------5-3-5-|
E|-------------------------------------------------------------------------3-|

Riff 10(Kinda like riff 9):
E|---------------------------------------------------------------------------|
B|---------------------------------------------------------------------------|
G|---------------------------------------------------------------------------|
D|-2--------7-7------7-8--------5/7--7/8--2--------7-7------7-8--7-5---------|
A|-0-000000-5-5-0000-5-6-000000-3/5--5/6--0-000000-5-5-0000-5-6-000000-5-3-5-|
E|-------------------------------------------------------------------------3-|

Back to Riff 1:
E|-----------------------------------------------------------------------------|
B|-----------------------------------------------------------------------------|
G|------------------------3p2p0------------------------------------3p2p0-------|
D|-2----------------3p2p0-------3p2p0-------2----------------3p2p0-------3-5-6-|
A|-0-00000000000000-------------------3p2p0-0-00000000000000-------------1-3-4-|
E|-----------------------------------------------------------------------------|

Riff 11:
E|-------------------------|(3 times)
B|-------------------------|
G|-------3p2p0-------------|
D|-3p2p0-------3p2p0-------|
A|-------------------3p2p0-|
E|-------------------------|

End:
E|--------------------------------------------------|
B|--------------------------------------------------|
G|--------------------------------------------------|
D|-2-3---5-555555555555555555555555555555555555-5---|
A|-0-1-5-3-333333333333333333333333333333333333-3-7-|
E|-----3------------------------------------------5-|

And that is it. And again, if you find anything wrong with this tab, tell me, but it 
seemed to sound great while playing it with the record.
Tap to rate this tab
# A B C D E F G H I J K L M N O P Q R S T U V W X Y Z