Song name
# A B C D E F G H I J K L M N O P Q R S T U V W X Y Z

Violator - Futurephobia tab

Standard Tuning Guitar: E-A-D-G-B-E

Band: Violator
Album: Annihilation Process(EP)
Instrument: Guitar(Both)
Disclaimer: This tab isn't mine, I took from somewhere, I don't know the real guy who 
did it because there isn't any name written anywhere, but I hope he doesn't mind that I 
post the Tab here, anyway, Enjoy Metalheads.

Tempo=160 Rhythm Guitar
e|------------------|
b|------------------|
g|------------------|
D|------------------|
A|-1----------------|
E|-0----------------|
   |---- Let it ring

e|----------------------------------|
b|----------------------------------|
g|----------------------------------|
D|----------------------------------|
A|-2--------------------------------|
E|-0-0-0-0-0-0-0-0-0-0-0-0-0-0-0-0--|
P.M. |All the way________________|

e|------------------------------------------------|
b|------------------------------------------------|
g|------------------------------------------------|
D|-------------------6----------------------------|
A|-8--------5--------4--------3--------5--6-------|
E|-6--0--0--3--0--0-----0--0--1--0--0--3--4-----0-|

e|----------------------------------|
b|----------------------------------|
g|----------------------------------|
D|----------------------------------|
A|-2--------------------------------|
E|-0-0-0-0-0-0-0-0-0-0-0-0-0-0-0-0--|
P.M. |All the way________________|

e|-----------------------------------------|
b|-----------------------------------------|
g|-----------------------------------------|
D|-------------------------------6---------|
A|-8--------------5--------------4---------|
E|-6--0--0--0--0--3--0--0--0--0-----0--0---|

e|-----------------------------------|
b|-----------------------------------|
g|-----------------------------------|
D|-----------------------------------|
A|-------3--------------5--6---------|
E|-0--0--1--0--0--0--0--3--4--0--0---|

e|----------------------------------|
b|----------------------------------|
g|----------------------------------|
D|----------------------------------|
A|-2--------------------------------|
E|-0-0-0-0-0-0-0-0-0-0-0-0-0-0-0-0--|
P.M. |All the way________________|

e|-----------------------------------------|
b|-----------------------------------------|
g|-----------------------------------------|
D|-------------------------------6---------|
A|-8--------------5--------------4---------|
E|-6--0--0--0--0--3--0--0--0--0-----0------|

e|-----------------------------------|
b|-----------------------------------|
g|-----------------------------------|
D|-----------------------------------|
A|-------3--------------5--6---------|
E|-0--0--1--0--0--0--0--3--4--0--0---|

e|----------------------------------|
b|----------------------------------|
g|----------------------------------|
D|----------------------------------|
A|-2--------------------------------|
E|-0-0-0-0-0-0-0-0-0-0-0-0-0-0-0-0--|
P.M. |All the way________________|

e|-----------------------------------------|
b|-----------------------------------------|
g|-----------------------------------------|
D|-------------------------------6---------|
A|-8--------------5--------------4---------|
E|-6--0--0--0--0--3--0--0--0--0-----0------|

e|-----------------------------------|
b|-----------------------------------|
g|-----------------------------------|
D|-----------------------------------|
A|-------3--------------5--6---------|
E|-0--0--1--0--0--0--0--3--4--0--0---|

e|----------------------------------|
b|----------------------------------|
g|----------------------------------|
D|----------------------------------|
A|-2--------------------------------|
E|-0-0-0-0-0-0-0-0-0-0-0-0-0-0-0-0--|
P.M. |All the way________________|

e|-----------------------------------------|
b|-----------------------------------------|
g|-----------------------------------------|
D|-------------------------------6---------|
A|-8--------------5--------------4---------|
E|-6--0--0--0--0--3--0--0--0--0-----0------|

e|-----------------------------------|
b|-----------------------------------|
g|-----------------------------------|
D|-----------------------------------|
A|-------3--------------5--6---------|
E|-0--0--1--0--0--0--0--3--4--0--0---|

e|-----------------------------------------|
b|-----------------------------------------|
g|-----------------------------------------|
D|-------------------------------6---------|
A|-8--------------5--------------4---------|
E|-6--0--0--0--0--3--0--0--0--0-----0--0---|

Only Intro for now, rest of Tab plus Solo coming soon.
Tap to rate this tab
# A B C D E F G H I J K L M N O P Q R S T U V W X Y Z