Song name
# A B C D E F G H I J K L M N O P Q R S T U V W X Y Z

Violator - Futurephobia tab

-----------------------------------------------------------------------------
                           Futurephobia - Violator
-----------------------------------------------------------------------------
Tuning: Standard
Tempo = aprox. 160


e|----|
B|----|
G|----|
D|----|    CRESCENDO ( < )
A|-1--|
E|-0--|

Intro - 00:03
e|-----------------------------------------------------------------|
B|-----------------------------------------------------------------|
G|-----------------------------------------------------------------|
D|---------------------------------------------6-------------------|
A|-2-------------------------------8-----5-----4-----3-----6-5-----|
E|-0-0-0-0-0-0-0-0-0-0-0-0-0-0-0-0-6-0-0-3-0-0---0-0-1-0-0-4-3-0-0-|

e|---------------------------------------------------------------------|
B|---------------------------------------------------------------------|
G|---------------------------------------------------------------------|
D|-----------------------------------------------6---------------------|
A|-2-------------------------------8------5------4------3------5-6-----|
E|-0-0-0-0-0-0-0-0-0-0-0-0-0-0-0-0-6-0000-3-0000---0000-1-0000-3-4-0-0-|



e|-----------------------------------------------------------------|
B|-----------------------------------------------------------------|
G|-----------------------------------------------------------------|
D|---------------------------------------------6-------------------|
A|-2-------------------------------8-----5-----4-----3-----6-5-----|
E|-0-0-0-0-0-0-0-0-0-0-0-0-0-0-0-0-6-0-0-3-0-0---0-0-1-0-0-4-3-0-0-|

e|-----------------------------------------------------------------|
B|-----------------------------------------------------------------|
G|-----------------------------------------------------------------|
D|---------------------------------------------6-------------------|
A|-2-------------------------------8-----5-----4-----3-----5-6-----|
E|-0-0-0-0-0-0-0-0-0-0-0-0-0-0-0-0-6-0-0-3-0-0---0-0-1-0-0-3-4-0-0-|

e|-----------------------------------------------------------------|
B|-----------------------------------------------------------------|
G|-----------------------------------------------------------------|
D|---------------------------------------------6-------------------|
A|-2-------------------------------8-----5-----4-----3-----6-5-----|
E|-0-0-0-0-0-0-0-0-0-0-0-0-0-0-0-0-6-0-0-3-0-0---0-0-1-0-0-4-3-0-0-|

e|---------------------------------|
B|---------------------------------|
G|---------------------------------|
D|---------------6-----------------|
A|-8------5------4------3------5-6-|
E|-6-0000-3-0000---0000-1-0000-3-4-|


00:37    Play x2
e|---------------------------------|---------------------------|
B|---------------------------------|---------------------------|
G|---------------------------------|---------------------------|
D|---------------------------------|-------------------------6-|
A|-2---------------------------5-6-|-2-----------8-----5-----4-|
E|-0-0-0-0-0-0-0-0-000-000-000-3-4-|-0-0-0-0-0-0-6-0-0-3-0-0---|

e|---------------------------------|-----------|
B|---------------------------------|-----------|
G|---------------------------------|-----------|
D|---------------------------------|--------6--|
A|-2---------------------------5-6-|--8-----4--|
E|-0-0-0-0-0-0-0-0-000-000-000-3-4-|--6--------|

00:53
e|---------------------------------|
B|---------------------------------|
G|---------------------------------|
D|---------------------------------|
A|-2-------5-------6---7-------8-7-|
E|-0-0-0-0-3-0-0-0-4-0-5-0-0-6-----|

e|-----------------------------------|
B|-----------------------------------|
G|-----------------------------------|
D|-----------------------------------|
A|-2-------5-------7---6-----2-6-5---|
E|-0-0-0-0-3-0-0-0-5-0-4-0-0-0-4-3---|

e|---------------------------------|-------------------|
B|---------------------------------|-------------------|
G|---------------------------------|-------------------|
D|---------------------------------|-------4-----------|
A|-2-------5-------6---7-------8-7-|-8--5--6--3--5--6--|
E|-0-0-0-0-3-0-0-0-4-0-5-0-0-6-----|-6--3-----1--3--4--|



1:01 Play x4
e|---------------------------------|------------------------------|
B|---------------------------------|------------------------------|
G|---------------------------------|------------------------------|
D|---------------------------------|-----------------6------------|
A|-2-------8---5---4-----6-2-3-----|-2-------8---5---4-----5-6--6-|
E|-0-0-0-0-6-0-3-0---0-3-4-0-1-1-0-|-0-0-0-0-6-0-3-0---0-0-3-4--4-|


1:18 Play x2
e|-------------------------------------|-------------------------------|
B|-------------------------------------|-------------------------------|
G|-------------------------------------|-------------------------------|
D|-------------------------------------|-------------------------------|
A|-4---------------------4---------8-7-|-5-----------------------------|
E|-2-2-2-2-2-3-3-2-3-3-2-2-2-2-2-2-6-5-|-3-333333333335555555566666666-|



Chorus 1:26
e|-------------------|-------------------|
B|-------------------|-------------------|
G|-------------------|-------------------|
D|-----------5---4-0-|-------------------|
A|-------------------|-------------------|
E|-2-2-2-2-2---2-----|-2-2-2-2-2-5-2-3-5-|

e|-------------------|----------|
B|-------------------|----------|
G|-------------------|----------|
D|-----------5---4-0-|-2-3------|
A|-------------------|-0-1-5-2--|
E|-2-2-2-2-2---2-----|-----3-0--|

e|-------------------|-------------------|
B|-------------------|-------------------|
G|-------------------|-------------------|
D|-----------5---4-0-|-------------------|
A|-------------------|-------------------|
E|-2-2-2-2-2---2-----|-2-2-2-2-2-5-2-3-5-|

e|-------------------|---|
B|-------------------|---|
G|-------------------|---|
D|-----------5---4-0-|---|
A|-------------------|-5-|
E|-2-2-2-2-2---2-----|-3-|



1:35 Play x3
e|---------------------------------|------------------------------|
B|---------------------------------|------------------------------|
G|---------------------------------|------------------------------|
D|---------------------------------|-----------------6------------|
A|-2-------8---5---4-----6-2-3-----|-2-------8---5---4-----5-6--6-|
E|-0-0-0-0-6-0-3-0---0-3-4-0-1-1-0-|-0-0-0-0-6-0-3-0---0-0-3-4--4-|



1:47 Play x2
e|-------------------------------------|-------------------------------|
B|-------------------------------------|-------------------------------|
G|-------------------------------------|-------------------------------|
D|-------------------------------------|-------------------------------|
A|-4---------------------4---------8-7-|-5-----------------------------|
E|-2-2-2-2-2-3-3-2-3-3-2-2-2-2-2-2-6-5-|-3-333333333335555555566666666-|



Chorus 1:56
e|-------------------|-------------------|
B|-------------------|-------------------|
G|-------------------|-------------------|
D|-----------5---4-0-|-------------------|
A|-------------------|-------------------|
E|-2-2-2-2-2---2-----|-2-2-2-2-2-5-2-3-5-|

e|-------------------|----------|
B|-------------------|----------|
G|-------------------|----------|
D|-----------5---4-0-|-2-3------|
A|-------------------|-0-1-5-2--|
E|-2-2-2-2-2---2-----|-----3-0--|

e|-------------------|-------------------|
B|-------------------|-------------------|
G|-------------------|-------------------|
D|-----------5---4-0-|-------------------|
A|-------------------|-------------------|
E|-2-2-2-2-2---2-----|-2-2-2-2-2-5-2-3-5-|

e|-------------------|----------|
B|-------------------|----------|
G|-------------------|----------|
D|-----------5---4-0-|-2-3------|
A|-------------------|-0-1-5-2--|
E|-2-2-2-2-2---2-----|-----3-0--|





Solo 1  2:03
e|-----------15-|1414141414141414151514141714141415141414141414141515141417141414-|
B|--------------|-----------------------------------------------------------------|
G|-/14-15-12----|-----------------------------------------------------------------|
D|--------------|-----------------------------------------------------------------|
A|--------------|-----------------------------------------------------------------|
E|--------------|-----------------------------------------------------------------|

e|-15151515151515151515151515151515|17171717171717171818181818181818-
B|---------------------------------|---------------------------------|
G|---------------------------------|---------------------------------|
D|---------------------------------|---------------------------------|
A|---------------------------------|---------------------------------|
E|---------------------------------|---------------------------------|


e|------------------------------------------------|
B|------------------------------------------------|
G|-/11---12-11-9-11-9-7-9-7-6-7-6-4-6-4-3-4-3-----|
D|--------------------------------------------5-4-|
A|------------------------------------------------|
E|------------------------------------------------|

e|----------------------------------------------------------------------------------|
B|----------------------------------------------------------------------------------|
G|-11---------13---------14---------13---------11---------13---------14----------18-|
D|----11-9-11----11-9-11----11-9-11----11-9-11----11-9-11----11-9-11----11-9-11-----|
A|----------------------------------------------------------------------------------|
E|----------------------------------------------------------------------------------|

e|--------------------------------------------------------------------------|
B|--------------------------------------------------------------------------|
G|-19--19-19-19-19-21-21-16-16-18-16----------------------------------------|
D|-----------------------------------17-17-16-16----------------------------|
A|-----------------------------------------------17-17-16-16-14-14----------|
E|-----------------------------------------------------------------17-17-14-|

e|---------------------------------|----------------|
B|---------------------------------|-----------19/--|
G|---------------------------------|-14---15---18/--|
D|-------------------------15--16--|-14---15--------|
A|-------------14--16--17----------|----------------|
E|-14--16--17----------------------|----------------|


2:21 Play x2
e|-----------------------------------------|------------------------------|
B|-----------------------------------------|------------------------------|
G|-----------------------------------------|------------------------------|
D|-----------------------------------------|------------------------------|
A|-2-----------------------------------5/6-|-2-------------8-----5-----6--|
E|-0-0-0-0-0-0-0-0-0-0-0-0-0-0-0-0-0-0-3/4-|-0-0-0-0-0-0-0-6-0-0-3-0-0-4--|

e|-----------------------------------------|------------------------------|
B|-----------------------------------------|------------------------------|
G|-----------------------------------------|------------------------------|
D|-----------------------------------------|---------------------------6--|
A|-2-----------------------------------5/6-|-2-------------8-----5-----4--|
E|-0-0-0-0-0-0-0-0-0-0-0-0-0-0-0-0-0-0-3/4-|-0-0-0-0-0-0-0-6-0-0-3-0-0----|



2:38
e|-------------------|-----------------------------|
B|-------------------|-----------------------------|
G|-------------------|-----------------------------|
D|-------------------|---------------------------6-|
A|-2-----------------|-2-------------8-----5-----4-|
E|-0-0-0-0-0-0-0-0---|-0-0-0-0-0-0-0-6-0-0-3-0-0---|

e|-------------------|--------------------------------|
B|-------------------|--------------------------------|
G|-------------------|--------------------------------|
D|-------------------|--------------------------------|
A|-2-----------------|-2-------------8/---------------|
E|-0-0-0-0-0-0-0-0---|-0-0-0-0-0-0-0-6/-3-3-3-3-3-3-3-|




2:46 Play x2
e|-----------------------------------------|--------------------------|
B|-----------------------------------------|--------------------------|
G|-----------------------------------------|--------------------------|
D|-----------------------------------------|--------------------------|
A|-2-----------------------------------5/6-|-2-------------8---5---6--|
E|-0-0-0-0-0-0-0-0-0-0-0-0-0-0-0-0-0-0-3/4-|-0-0-0-0-0-0-0-6-0-3-0-4--|

e|-----------------------------------------|--------------------------|
B|-----------------------------------------|--------------------------|
G|-----------------------------------------|--------------------------|
D|-----------------------------------------|-----------------------6--|
A|-2-----------------------------------5/6-|-2-------------8---5---4--|
E|-0-0-0-0-0-0-0-0-0-0-0-0-0-0-0-0-0-0-3/4-|-0-0-0-0-0-0-0-6-0-3-0----|




Solo 2  3:03  COMING SOON
e|---|
B|---|
G|---|
D|---|
A|---|
E|---|



3:19 Play x2
e|---------------------------------|-------------------------------|
B|---------------------------------|-------------------------------|
G|---------------------------------|-------------------------------|
D|---------------------------------|----------------------------10-|
A|-7---6-------6-5-----5-4---------|-7---6-------6-5-----5-4-----8-|
E|---0---0-0-0-----0-0-----0-0-4-3-|---0---0-0-0-----0-0-----0-0---|



3:27 Play x4
e|---------------------------------|---------------------------------|
B|---------------------------------|---------------------------------|
G|---------------------------------|---------------------------------|
D|-9------10---8-------------------|---------------------------------|
A|-7-------8---6-------9--10---9---|-8-------8---7-----------6---7---|
E|---0-0-0---0---0-0-0-7-0-8-0-7-0-|-6-0-0-0-6-0-5-0-0-0-0-0-4-0-5-0-|

e|---------------------------------|---------------------------------|
B|---------------------------------|---------------------------------|
G|---------------------------------|---------------------------------|
D|-9------10---8-------------------|---------------------------------|
A|-7-------8---6-------9--10---9---|-8-------7---8----------11--10---|
E|---0-0-0---0---0-0-0-7-0-8-0-7-0-|-6-0-0-0-5-0-6-0-0-0-0-0-9-0-8-0-|



3:44 Play x2
e|---------------------------------|-------------------------------|
B|---------------------------------|-------------------------------|
G|---------------------------------|-------------------------------|
D|---------------------------------|----------------------------10-|
A|-7---6-------6-5-----5-4---------|-7---6-------6-5-----5-4-----8-|
E|---0---0-0-0-----0-0-----0-0-4-3-|---0---0-0-0-----0-0-----0-0---|



3:52 Chorus
e|-------------------|-------------------|
B|-------------------|-------------------|
G|-------------------|-------------------|
D|-----------5---4-0-|-------------------|
A|-------------------|-------------------|
E|-2-2-2-2-2---2-----|-2-2-2-2-2-5-2-3-5-|

e|-------------------|----------|
B|-------------------|----------|
G|-------------------|----------|
D|-----------5---4-0-|-2-3------|
A|-------------------|-0-1-5-2--|
E|-2-2-2-2-2---2-----|-----3-0--|

e|-------------------|-------------------|
B|-------------------|-------------------|
G|-------------------|-------------------|
D|-----------5---4-0-|-------------------|
A|-------------------|-------------------|
E|-2-2-2-2-2---2-----|-2-2-2-2-2-5-2-3-5-|

e|-------------------|----------|
B|-------------------|----------|
G|-------------------|----------|
D|-----------5---4-0-|-2-3------|
A|-------------------|-0-1-5-2--|
E|-2-2-2-2-2---2-----|-----3-0--|



4:01 Play x2
e|-------------------|-------------------|
B|-------------------|-------------------|
G|-------------------|-------------------|
D|-----------5---4-0-|-------------------|
A|-------------------|-------------------|
E|-2-2-2-2-2---2-----|-2-2-2-2-2-5-2-3-5-|

e|-------------------|-------------------|
B|-------------------|-------------------|
G|-------------------|-------------------|
D|-------------------|-------------------|
A|-------------------|-------------------|
E|-3-3-3-3-3-6-3-5/6-|-5-5-5-5-5-8-5-7/8-|



Chorus 4:09
e|-------------------|-------------------|
B|-------------------|-------------------|
G|-------------------|-------------------|
D|-----------5---4-0-|-------------------|
A|-------------------|-------------------|
E|-2-2-2-2-2---2-----|-2-2-2-2-2-5-2-3-5-|

e|-------------------|----------|
B|-------------------|----------|
G|-------------------|----------|
D|-----------5---4-0-|-2-3------|
A|-------------------|-0-1-5-2--|
E|-2-2-2-2-2---2-----|-----3-0--|

e|-------------------|-------------------|
B|-------------------|-------------------|
G|-------------------|-------------------|
D|-----------5---4-0-|-------------------|
A|-------------------|-------------------|
E|-2-2-2-2-2---2-----|-2-2-2-2-2-5-2-3-5-|

e|-------------------|----------|
B|-------------------|----------|
G|-------------------|----------|
D|-----------5---4-0-|-2-3------|
A|-------------------|-0-1-5-2--|
E|-2-2-2-2-2---2-----|-----3-0--|



4:17
e|---------------------------------|------------------------------|
B|---------------------------------|------------------------------|
G|---------------------------------|------------------------------|
D|---------------------------------|-----------------6------------|
A|-2-------8---5---4-----6-2-3-----|-2-------8---5---4-----5-6--6-|
E|-0-0-0-0-6-0-3-0---0-3-4-0-1-1-0-|-0-0-0-0-6-0-3-0---0-0-3-4--4-|

e|----|
B|----|
G|----|
D|----|
A|-2--|
E|-0--|

END
Tap to rate this tab
# A B C D E F G H I J K L M N O P Q R S T U V W X Y Z