Song name
# A B C D E F G H I J K L M N O P Q R S T U V W X Y Z

Violent Delight - I Wish I Was A Girl tab

Help us improve GuitareTab! Take a short survey!
Violent Delight-IWIWAG
Drop D

Intro 
e--------------------
B-9--12--11--16------
G--------------------
D-7--10--9---14------
A--------------------
D--------------------

Verse
---------------------
---------------------
---------------------
-7-7-7-7-9--3-3-3-3-5
-7-7-7-7-9--3-3-3-3-5
-7-7-7-7-9--3-3-3-3-5

Pre & Post Chorus
---------------------
---------------------
---------------------
-2-2-2-2-3-2-2-2-2-0-
-2-2-2-2-3-2-2-2-2-0-
-2-2-2-2-3-2-2-2-2-0-

Chorus
------------------------------------
------------------------------------
------------------------------------
-7-7-7-7--3-3-3-3--5-5-5-5--5-5-5-5-
-7-7-7-7--3-3-3-3--3-3-3-3--5-5-5-5-
-7-7-7-7--3-3-3-3-----------5-5-5-5-

I dunno the other bit, but oh well im sure somebody else dus!!!
Related for I Wish I Was A Girl tab