Song name
# A B C D E F G H I J K L M N O P Q R S T U V W X Y Z

Violent Delight - Jump tab

Wasn't able to tab the fast tapping in the solo, but the rest should be about right. Enjoy.
Played in drop D.



Intro:
e|-----x3-----|----4th----|
B|------------|-----------|
G|------------|-----------|
D|-00-00-3013-|-3333-5555-|
A|-00-00-3013-|-3333-5555-|
D|-00-00-3013-|-3333-5555-|x4
      ..



Verse:
e|------------------------|
B|------------------------|
G|----------10101010/9999-|
D|-00-00-00-xxxxxxxx/xxxx-|
A|-00-00-00-8-8-8-8-/7777-|
D|-00-00-00---------------|



Pre-Chorus:
e|------------------------------------------------->
B|------------------------------------------------->
G|-77777777-1010101010101010-77777777-101010109999->
D|-77777777-1010101010101010-77777777-101010109999->
A|-55555555-8-8-8-8-8-8-8-8--55555555-8-8-8-8-7777->
D|------------------------------------------------->

<-------------------------------------------------------|
<-------------------------------------------------------|
<-77777777-1010101010101010-1212121212121212-1313131312-|
<-77777777-1010101010101010-1212121212121212-1313131312-|
<-55555555-8-8-8-8-8-8-8-8--1010101010101010-1111111110-|
<-------------------------------------------------------|



Chorus:
e|-----x3-----|----4th----|
B|------------|-----------|
G|------------|-----------|
D|-00-00-3013-|-3333-5555-|
A|-00-00-3013-|-3333-5555-|
D|-00-00-3013-|-3333-5555-|x2
      ..



Verse:
e|------------------------|
B|------------------------|
G|----------10101010/9999-|
D|-00-00-00-xxxxxxxx/xxxx-|
A|-00-00-00-8-8-8-8-/7777-|
D|-00-00-00---------------|



Pre-Chorus:
e|------------------------------------------------->
B|------------------------------------------------->
G|-77777777-1010101010101010-77777777-101010109999->
D|-77777777-1010101010101010-77777777-101010109999->
A|-55555555-8-8-8-8-8-8-8-8--55555555-8-8-8-8-7777->
D|------------------------------------------------->

<-------------------------------------------------------|
<-------------------------------------------------------|
<-77777777-1010101010101010-1212121212121212-1313131312-|
<-77777777-1010101010101010-1212121212121212-1313131312-|
<-55555555-8-8-8-8-8-8-8-8--1010101010101010-1111111110-|
<-------------------------------------------------------|



Chorus:
e|-----x3-----|----4th----|
B|------------|-----------|
G|------------|-----------|
D|-00-00-3013-|-3333-5555-|
A|-00-00-3013-|-3333-5555-|
D|-00-00-3013-|-3333-5555-|x2
      ..



Interlude:
e|-------------------------------|
B|-------------------------------|
G|-------------------------------|
D|-0~----------------------------|
A|-0~-12~-10~-9~-----------------|
D|-0~------------12~-8~-7~-4~-0~-|x2



Solo:
e|----------------------------------------------------------->
B|----------------------------------------------------------->
G|-------------------------------------------------------12b->
D|-1212----------12-14-12-14b-12-12~-12-14b-12-14b-12-14----->
A|-1212----12-14--------------------------------------------->
D|-1212-14--------------------------------------------------->


<-------------------------------------------------------------------->
<--------12-14b-12-14-(Tapping)-12b-12h14p12h14p--------------------->
<-12-14b-----------------------------------------12h14p12h14p-------->
<-------------------------------------------------------------14p12~->
<-------------------------------------------------------------------->
<-------------------------------------------------------------------->



Chorus:
e|-----x3-----|----4th----|
B|------------|-----------|
G|------------|-----------|
D|-00-00-3013-|-3333-5555-|
A|-00-00-3013-|-3333-5555-|
D|-00-00-3013-|-3333-5555-|x4
      ..


Outro:
e|-----------|
B|-----------|
G|-----------|
D|-3333-5555-|
A|-3333-5555-|
D|-3333-5555-|x2



Tap to rate this tab
 
# A B C D E F G H I J K L M N O P Q R S T U V W X Y Z