Song name
# A B C D E F G H I J K L M N O P Q R S T U V W X Y Z

Violent Femmes - Prove My Love tab

                    VIOLENT FEMMES
                    PROVE MY LOVE


A7:XX2X2X

verse 1:
start bass With E and then the guitar do this:
                            A
e|--5-5--3-3----------------5----------------------------------------|
B|--7-7--5-5-4-4-3-2--------5----------------------------------------|
G|--7-7--5-5-4-4-3-2-(x2)---6----------------------------------------|
D|-------------------------------------------------------------------|
A|-------------------------------------------------------------------|
E|-------------------------------------------------------------------|

CHORUS:

                  A          A7     D
Tell me now       What do i have to do
D                 A          A7     D
Tell me now       What do i have to do


   A        D        E
To prove my love to you

-Verse 1-(x2)

-CHORUS-

SOLO:

e|---------0-0-0-0--8-8-8-8--0-----------0-------------8-8-8-8------------|
B|-2-2-2---1-2-2-2--8-8-8-8--2-2-2-2-2-2-2-2-2-2-2-2-2-8-8-8-8--2-2-2-2-2-|
G|-2-0-2-----------------------2-0-2-0-2---0-2-0-2-0-2----------2-0-2-0-2-|
D|-2-2-2-----------------------2-2-2-2-2---2-2-2-2-2-2----------2-2-2-2-2-|
A|------------------------------------------------------------------------|
E|------------------------------------------------------------------------|

-VERSE 1-(X2)

-CHORUS-

Tell me now
A         A7       D
What do i have to do
D
I'd do anything
A         A7       D
What do i have to do
D
I'd do it all
A         A7       D
What do i have to do
D
I'd do it all for you
 A         A7       D
What do i have to do
D
I'd climb a mountain
A         A7       D
What do i have to do
D
I'd cross the ocean
A         A7       D
What do i have to do
D
I'd do it it all
A         A7       D
What do i have to do
     A       D       E
To prove my love to you

End riff:

e|-0----------|
B|-3-------2--|
G|-1-------2--|
D|-2-------2--|
A|-2----------|
E|-0-(X11)----|

                                                             FPDLG
Tap to rate this tab
# A B C D E F G H I J K L M N O P Q R S T U V W X Y Z