Song name
# A B C D E F G H I J K L M N O P Q R S T U V W X Y Z

Violent Femmes - Blister In The Sun tab

From: satogata@hazel.fnal.gov (Todd Satogata)
Subject: Re: Femmes' "Blister in the Sun"

Well, the bass lines are the real meat and bones for most
Femmes' stuff I've ever picked out.  (That's okay in "Blister",
'cus for much of it the guitar is playing the bass part an
octave up...)

|----------------------------------------|
|----------------------------------------|
|----------------------------------------| 4 times
|----------------------------------------| (Figure A)
|---2---3-2-----2---3-2-----2---3-2-0----|
|-3---3-------3---3-------3---3-------3--|

|--------------------------------------------------------|
|--------------------------------------------------------|
|--------------------------------------------------------| Chorus
|---0^2----0^2-0^2-----------------------0^2----0^2-0^2--| (Figure B)
|-------------------3-2-0--2-3-3-2-0---------------------|
|-0------0---------------------------3--0-----0----------|

|----------------------------|
|----------------------------|
|----------------------------|
|---------0--2^0-------------| and then back to Figure A...
|-3-2-3-4--------3--5-3-2-0--|
|----------------------------|

|----------------|
|----------------|
|----------------| Bass riff before guitar harmonics...
|-4^2^0-3^2------|
|-----------3^2--|
|----------------|



Another song I know the bass line for off the same album
(that is, ignoring the bass solo which I never got all the
way through, and so fake) is "Please Do Not Go":

|----------------------------------------------|
|----------------------------------------------|
|---------0------------------------------------|
|-------0---3-2-0-----------0---2^0------------|  Main Verse bass line
|-----2-------------3-2-3-4---------3--5^3-2-0-|
|-3-3------------------------------------------|

|-----------------------------|
|-----------------------------|
|-----------------------------|
|--5-3-2-0----------0---------|  Basic Chorus bass
|-----------3-2-3-4---3-2-0---|
|-----------------------------|

A very similar riff to the 4^2^0 riff in "Blister" starts
off the bass solo, if you feel inclined to actually figure it out.
(Hint: there's lots of alternating picking, with an open string
ringing a note while another string is played in a sliding,
climbing fashion.)  I'd love to see real tab for the entire
bass solo of this song...

				-T

/-|-\-|-/-|-\-|-/-|-\-|-/-|-\-|-/-|-\-|-/-|-\-|-/-|-\-|-/-|-\-|-/-|-\-|-/-|-\
| Todd Satogata           | Can you still recall that bundle of potential   |
| satogata@calvin.fnal.gov|    that you were when you were young...         |
| satogata@fnal.bitnet    |			-Tony Banks, 1991           |
\-|-/-|-\-|-/-|-\-|-/-|-\-|-/-|-\-|-/-|-\-|-/-|-\-|-/-|-\-|-/-|-\-|-/-|-\-|-/
Tap to rate this tab
# A B C D E F G H I J K L M N O P Q R S T U V W X Y Z