Song name
# A B C D E F G H I J K L M N O P Q R S T U V W X Y Z

Violent Femmes - High As A Kite tab

I noticed that there is a tab on here of this song that is not so high quality, so i 
I'd correct it a bit.

Intro:

                  G5
e -----------------------------------|
B -----------------------------------|
G -----------------------------------|
D -----------------------------------|
A ------2-3-2---2-2-3-2---2-3-2------|
E ----3-------3---------3-------3----|
                 G5
-------------------------------------|
-------------------------------------|
-------------------------------------|
-------------------------------------|
----2-3-2----2-2-3-2---2-3-2---------|
--3-------3----------3-------3-------|

repeat
Tap to rate this tab
# A B C D E F G H I J K L M N O P Q R S T U V W X Y Z