Song name
# A B C D E F G H I J K L M N O P Q R S T U V W X Y Z

Violent Femmes - Gone Daddy Gone tab

-------------------------------------------------------------------------------
			     GONE DADDY GONE - Violent Femmes
-------------------------------------------------------------------------------
Tabbed by:Zack Noe
Email:Zackary_noe@eku.edu

Tuning:standard


Verse
e|---------------------------------------------------------------------------|
B|---------------------------------------------------------------------------|
G|---------------------------------------------------------------------------|
D|777-555-44-33--------------------------------------------------------------|
A|---------------------------------------------------------------------------|
E|555-333-22-11--------------------------------------------------------------|


Chorus – You’ll have to listen to the song to get the timing right.
e|---------------------------------------------------------------------------|
B|---------------------------------------------------------------------------|
G|---------------------------------------------------------------------------|
D|7---10---12---15-----------------------------------------------------------|
A|---------------------------------------------------------------------------|
E|5---8----10---13-----------------------------------------------------------|
Tap to rate this tab
# A B C D E F G H I J K L M N O P Q R S T U V W X Y Z